ISO-10303-21;
HEADER;
FILE_DESCRIPTION (( 'STEP AP214' ),
    '1' );
FILE_NAME ('450065.STEP',
    '2025-11-19T06:22:03',
    ( '' ),
    ( '' ),
    'SwSTEP 2.0',
    'SolidWorks 2020',
    '' );
FILE_SCHEMA (( 'AUTOMOTIVE_DESIGN' ));
ENDSEC;

DATA;
#1 = PRODUCT_DEFINITION_CONTEXT ( 'detailed design', #220, 'design' ) ;
#2 = CARTESIAN_POINT ( 'NONE',  ( -0.5000000000001669775, 0.000000000000000000, 0.000000000000000000 ) ) ;
#3 = EDGE_CURVE ( 'NONE', #334, #18, #224, .T. ) ;
#4 = DIRECTION ( 'NONE',  ( -0.7071067811866175168, 8.659560562354078670E-17, -0.7071067811864776287 ) ) ;
#5 = UNCERTAINTY_MEASURE_WITH_UNIT (LENGTH_MEASURE( 1.000000000000000082E-05 ), #292, 'distance_accuracy_value', 'NONE');
#6 =( GEOMETRIC_REPRESENTATION_CONTEXT ( 3 ) GLOBAL_UNCERTAINTY_ASSIGNED_CONTEXT ( ( #252 ) ) GLOBAL_UNIT_ASSIGNED_CONTEXT ( ( #124, #101, #211 ) ) REPRESENTATION_CONTEXT ( 'NONE', 'WORKASPACE' ) );
#7 = CONICAL_SURFACE ( 'NONE', #109, 25.00000000000000000, 0.2438248439791809163 ) ;
#8 = DIRECTION ( 'NONE',  ( -1.000000000000000000, 0.000000000000000000, -0.000000000000000000 ) ) ;
#9 = EDGE_CURVE ( 'NONE', #287, #157, #29, .T. ) ;
#10 = DIRECTION ( 'NONE',  ( -0.000000000000000000, 0.000000000000000000, 1.000000000000000000 ) ) ;
#11 = CARTESIAN_POINT ( 'NONE',  ( -8.000000000000007105, 3.061616997868383437E-15, -25.00000000000000355 ) ) ;
#12 =( GEOMETRIC_REPRESENTATION_CONTEXT ( 3 ) GLOBAL_UNCERTAINTY_ASSIGNED_CONTEXT ( ( #5 ) ) GLOBAL_UNIT_ASSIGNED_CONTEXT ( ( #292, #213, #233 ) ) REPRESENTATION_CONTEXT ( 'NONE', 'WORKASPACE' ) );
#13 = PLANE ( 'NONE',  #135 ) ;
#14 = CARTESIAN_POINT ( 'NONE',  ( -1502.221722416733428, 0.000000000000000000, 0.000000000000000000 ) ) ;
#15 = DIRECTION ( 'NONE',  ( -1.000000000000000000, -0.000000000000000000, -0.000000000000000000 ) ) ;
#16 =( GEOMETRIC_REPRESENTATION_CONTEXT ( 3 ) GLOBAL_UNCERTAINTY_ASSIGNED_CONTEXT ( ( #350 ) ) GLOBAL_UNIT_ASSIGNED_CONTEXT ( ( #307, #58, #166 ) ) REPRESENTATION_CONTEXT ( 'NONE', 'WORKASPACE' ) );
#17 = DIRECTION ( 'NONE',  ( 0.000000000000000000, 0.000000000000000000, 1.000000000000000000 ) ) ;
#18 = VERTEX_POINT ( 'NONE', #281 ) ;
#19 = ORIENTED_EDGE ( 'NONE', *, *, #272, .T. ) ;
#20 = ORIENTED_EDGE ( 'NONE', *, *, #9, .F. ) ;
#21 = VECTOR ( 'NONE', #268, 1000.000000000000000 ) ;
#22 = ORIENTED_EDGE ( 'NONE', *, *, #167, .T. ) ;
#23 = ADVANCED_BREP_SHAPE_REPRESENTATION ( '450065', ( #69, #154 ), #6 ) ;
#24 = AXIS2_PLACEMENT_3D ( 'NONE', #111, #137, #193 ) ;
#25 = SURFACE_STYLE_USAGE ( .BOTH. , #168 ) ;
#26 = EDGE_CURVE ( 'NONE', #212, #301, #163, .T. ) ;
#27 = LINE ( 'NONE', #136, #79 ) ;
#28 = AXIS2_PLACEMENT_3D ( 'NONE', #62, #145, #144 ) ;
#29 = CIRCLE ( 'NONE', #169, 25.00000000000000000 ) ;
#30 = CARTESIAN_POINT ( 'NONE',  ( -0.5000000000001669775, 1.836970198721029589E-15, -14.99999999999999822 ) ) ;
#31 = LINE ( 'NONE', #116, #316 ) ;
#32 = ADVANCED_FACE ( 'NONE', ( #368 ), #309, .T. ) ;
#33 = DIRECTION ( 'NONE',  ( 0.000000000000000000, 0.000000000000000000, 1.000000000000000000 ) ) ;
#34 = CYLINDRICAL_SURFACE ( 'NONE', #201, 14.99999999999999822 ) ;
#35 = EDGE_LOOP ( 'NONE', ( #159, #77 ) ) ;
#36 = DIRECTION ( 'NONE',  ( 0.000000000000000000, 0.000000000000000000, 1.000000000000000000 ) ) ;
#37 = ADVANCED_FACE ( 'NONE', ( #195 ), #179, .T. ) ;
#38 = AXIS2_PLACEMENT_3D ( 'NONE', #188, #356, #156 ) ;
#39 = CARTESIAN_POINT ( 'NONE',  ( -178.8300000000000409, 7.225416114969383207E-15, -58.99999999999999289 ) ) ;
#40 = ORIENTED_EDGE ( 'NONE', *, *, #304, .F. ) ;
#41 = CARTESIAN_POINT ( 'NONE',  ( -8.000000000000007105, 0.000000000000000000, 25.00000000000000000 ) ) ;
#42 = ORIENTED_EDGE ( 'NONE', *, *, #351, .F. ) ;
#43 = ADVANCED_FACE ( 'NONE', ( #369 ), #7, .T. ) ;
#44 = VECTOR ( 'NONE', #92, 1000.000000000000000 ) ;
#45 = CARTESIAN_POINT ( 'NONE',  ( -42.15999999999997527, 3.061616997868383043E-15, -25.00000000000000000 ) ) ;
#46 = AXIS2_PLACEMENT_3D ( 'NONE', #198, #59, #56 ) ;
#47 = ORIENTED_EDGE ( 'NONE', *, *, #236, .F. ) ;
#48 = FILL_AREA_STYLE_COLOUR ( '', #54 ) ;
#49 = SURFACE_STYLE_FILL_AREA ( #158 ) ;
#50 = ORIENTED_EDGE ( 'NONE', *, *, #61, .T. ) ;
#51 = EDGE_CURVE ( 'NONE', #105, #264, #192, .T. ) ;
#52 = PRODUCT_CONTEXT ( 'NONE', #358, 'mechanical' ) ;
#53 = CIRCLE ( 'NONE', #337, 59.00000000000000000 ) ;
#54 = COLOUR_RGB ( '',1.000000000000000000, 1.000000000000000000, 1.000000000000000000 ) ;
#55 = DIRECTION ( 'NONE',  ( -1.000000000000000000, -0.000000000000000000, -0.000000000000000000 ) ) ;
#56 = DIRECTION ( 'NONE',  ( 0.000000000000000000, 0.000000000000000000, 1.000000000000000000 ) ) ;
#57 = EDGE_CURVE ( 'NONE', #126, #215, #318, .T. ) ;
#58 =( NAMED_UNIT ( * ) PLANE_ANGLE_UNIT ( ) SI_UNIT ( $, .RADIAN. ) );
#59 = DIRECTION ( 'NONE',  ( -1.000000000000000000, -0.000000000000000000, -0.000000000000000000 ) ) ;
#60 = CARTESIAN_POINT ( 'NONE',  ( -0.5000000000001669775, 0.000000000000000000, 14.99999999999999822 ) ) ;
#61 = EDGE_CURVE ( 'NONE', #301, #126, #83, .T. ) ;
#62 = CARTESIAN_POINT ( 'NONE',  ( -0.5000000000001669775, 0.000000000000000000, 0.000000000000000000 ) ) ;
#63 = CIRCLE ( 'NONE', #266, 25.00000000000000000 ) ;
#64 = DIRECTION ( 'NONE',  ( 0.000000000000000000, 0.000000000000000000, 1.000000000000000000 ) ) ;
#65 = ORIENTED_EDGE ( 'NONE', *, *, #194, .T. ) ;
#66 = DIRECTION ( 'NONE',  ( 0.000000000000000000, 0.000000000000000000, 1.000000000000000000 ) ) ;
#67 = DIRECTION ( 'NONE',  ( 1.000000000000000000, 0.000000000000000000, 0.000000000000000000 ) ) ;
#68 = ORIENTED_EDGE ( 'NONE', *, *, #9, .T. ) ;
#69 = MANIFOLD_SOLID_BREP ( 'µ¹½Ç1', #332 ) ;
#70 = ORIENTED_EDGE ( 'NONE', *, *, #191, .F. ) ;
#71 = CARTESIAN_POINT ( 'NONE',  ( -208.8300000000000693, 0.000000000000000000, 0.000000000000000000 ) ) ;
#72 = CARTESIAN_POINT ( 'NONE',  ( -208.8300000000000693, 0.000000000000000000, 0.000000000000000000 ) ) ;
#73 = CARTESIAN_POINT ( 'NONE',  ( 0.000000000000000000, 0.000000000000000000, 14.49999999999992895 ) ) ;
#74 = ORIENTED_EDGE ( 'NONE', *, *, #340, .F. ) ;
#75 = EDGE_LOOP ( 'NONE', ( #20, #326 ) ) ;
#76 = EDGE_CURVE ( 'NONE', #215, #18, #27, .T. ) ;
#77 = ORIENTED_EDGE ( 'NONE', *, *, #306, .T. ) ;
#78 = DIRECTION ( 'NONE',  ( -1.000000000000000000, -0.000000000000000000, -0.000000000000000000 ) ) ;
#79 = VECTOR ( 'NONE', #170, 1000.000000000000000 ) ;
#80 = CYLINDRICAL_SURFACE ( 'NONE', #347, 24.99999999999999645 ) ;
#81 = ADVANCED_FACE ( 'NONE', ( #132 ), #218, .T. ) ;
#82 = FACE_OUTER_BOUND ( 'NONE', #258, .T. ) ;
#83 = LINE ( 'NONE', #251, #142 ) ;
#84 = CARTESIAN_POINT ( 'NONE',  ( -1502.221722416733428, 0.000000000000000000, 0.000000000000000000 ) ) ;
#85 = CIRCLE ( 'NONE', #229, 14.49999999999992895 ) ;
#86 = CARTESIAN_POINT ( 'NONE',  ( -8.000000000000007105, 0.000000000000000000, 14.99999999999999645 ) ) ;
#87 = CARTESIAN_POINT ( 'NONE',  ( -1502.221722416733428, 0.000000000000000000, 0.000000000000000000 ) ) ;
#88 = EDGE_LOOP ( 'NONE', ( #68, #94, #322, #190 ) ) ;
#89 = DIRECTION ( 'NONE',  ( 0.000000000000000000, 0.000000000000000000, -1.000000000000000000 ) ) ;
#90 = AXIS2_PLACEMENT_3D ( 'NONE', #99, #238, #209 ) ;
#91 = FACE_OUTER_BOUND ( 'NONE', #35, .T. ) ;
#92 = DIRECTION ( 'NONE',  ( -1.000000000000000000, -0.000000000000000000, -0.000000000000000000 ) ) ;
#93 = CARTESIAN_POINT ( 'NONE',  ( -1502.221722416733428, 0.000000000000000000, 59.00000000000000000 ) ) ;
#94 = ORIENTED_EDGE ( 'NONE', *, *, #351, .T. ) ;
#95 = CIRCLE ( 'NONE', #298, 59.00000000000000000 ) ;
#96 = AXIS2_PLACEMENT_3D ( 'NONE', #249, #55, #139 ) ;
#97 = DIRECTION ( 'NONE',  ( -1.000000000000000000, -0.000000000000000000, -0.000000000000000000 ) ) ;
#98 = ORIENTED_EDGE ( 'NONE', *, *, #315, .F. ) ;
#99 = CARTESIAN_POINT ( 'NONE',  ( -8.000000000000007105, 0.000000000000000000, 0.000000000000000000 ) ) ;
#100 = ORIENTED_EDGE ( 'NONE', *, *, #61, .F. ) ;
#101 =( NAMED_UNIT ( * ) PLANE_ANGLE_UNIT ( ) SI_UNIT ( $, .RADIAN. ) );
#102 = EDGE_LOOP ( 'NONE', ( #210, #240, #98, #178 ) ) ;
#103 = EDGE_CURVE ( 'NONE', #301, #212, #63, .T. ) ;
#104 = AXIS2_PLACEMENT_3D ( 'NONE', #288, #345, #36 ) ;
#105 = VERTEX_POINT ( 'NONE', #223 ) ;
#106 = EDGE_LOOP ( 'NONE', ( #354, #239, #244, #74 ) ) ;
#107 = DIRECTION ( 'NONE',  ( 1.000000000000000000, 0.000000000000000000, 0.000000000000000000 ) ) ;
#108 = DIRECTION ( 'NONE',  ( -0.9704216965567850073, 0.000000000000000000, 0.2414160948483988212 ) ) ;
#109 = AXIS2_PLACEMENT_3D ( 'NONE', #305, #280, #221 ) ;
#110 = DIRECTION ( 'NONE',  ( 0.000000000000000000, 0.000000000000000000, 1.000000000000000000 ) ) ;
#111 = CARTESIAN_POINT ( 'NONE',  ( -42.15999999999997527, 0.000000000000000000, 0.000000000000000000 ) ) ;
#112 = DIRECTION ( 'NONE',  ( 0.000000000000000000, 0.000000000000000000, 1.000000000000000000 ) ) ;
#113 = PRODUCT_DEFINITION_FORMATION_WITH_SPECIFIED_SOURCE ( 'ÈÎºÎ', '', #125, .NOT_KNOWN. ) ;
#114 = DIRECTION ( 'NONE',  ( -1.000000000000000000, -0.000000000000000000, -0.000000000000000000 ) ) ;
#115 = DIRECTION ( 'NONE',  ( -1.000000000000000000, -0.000000000000000000, -0.000000000000000000 ) ) ;
#116 = CARTESIAN_POINT ( 'NONE',  ( -1502.221722416733428, 1.836970198721029589E-15, -14.99999999999999822 ) ) ;
#117 = AXIS2_PLACEMENT_3D ( 'NONE', #320, #8, #10 ) ;
#118 = CARTESIAN_POINT ( 'NONE',  ( -0.5000000000001669775, 0.000000000000000000, 14.99999999999999822 ) ) ;
#119 = CARTESIAN_POINT ( 'NONE',  ( -1502.221722416733428, 0.000000000000000000, 24.99999999999999645 ) ) ;
#120 = ADVANCED_FACE ( 'NONE', ( #82 ), #344, .T. ) ;
#121 = SURFACE_SIDE_STYLE ('',( #49 ) ) ;
#122 = DIRECTION ( 'NONE',  ( 0.000000000000000000, 0.000000000000000000, 1.000000000000000000 ) ) ;
#123 = AXIS2_PLACEMENT_3D ( 'NONE', #219, #250, #339 ) ;
#124 =( LENGTH_UNIT ( ) NAMED_UNIT ( * ) SI_UNIT ( .MILLI., .METRE. ) );
#125 = PRODUCT ( '450065', '450065', '', ( #52 ) ) ;
#126 = VERTEX_POINT ( 'NONE', #197 ) ;
#127 = ORIENTED_EDGE ( 'NONE', *, *, #26, .T. ) ;
#128 = PRESENTATION_STYLE_ASSIGNMENT (( #270 ) ) ;
#129 = VERTEX_POINT ( 'NONE', #86 ) ;
#130 = CIRCLE ( 'NONE', #104, 14.99999999999999645 ) ;
#131 = ORIENTED_EDGE ( 'NONE', *, *, #57, .F. ) ;
#132 = FACE_OUTER_BOUND ( 'NONE', #359, .T. ) ;
#133 = ADVANCED_FACE ( 'NONE', ( #311 ), #80, .T. ) ;
#134 = SHAPE_DEFINITION_REPRESENTATION ( #352, #23 ) ;
#135 = AXIS2_PLACEMENT_3D ( 'NONE', #227, #346, #89 ) ;
#136 = CARTESIAN_POINT ( 'NONE',  ( -1502.221722416733428, 7.225416114969383207E-15, -59.00000000000000000 ) ) ;
#137 = DIRECTION ( 'NONE',  ( -1.000000000000000000, -0.000000000000000000, -0.000000000000000000 ) ) ;
#138 = ADVANCED_FACE ( 'NONE', ( #140 ), #285, .T. ) ;
#139 = DIRECTION ( 'NONE',  ( 0.000000000000000000, 0.000000000000000000, 1.000000000000000000 ) ) ;
#140 = FACE_OUTER_BOUND ( 'NONE', #88, .T. ) ;
#141 = PRESENTATION_LAYER_ASSIGNMENT (  '', '', ( #303 ) ) ;
#142 = VECTOR ( 'NONE', #108, 1000.000000000000000 ) ;
#143 = CARTESIAN_POINT ( 'NONE',  ( -1502.221722416733428, 0.000000000000000000, 0.000000000000000000 ) ) ;
#144 = DIRECTION ( 'NONE',  ( 0.000000000000000000, 0.000000000000000000, 1.000000000000000000 ) ) ;
#145 = DIRECTION ( 'NONE',  ( -1.000000000000000000, -0.000000000000000000, -0.000000000000000000 ) ) ;
#146 = AXIS2_PLACEMENT_3D ( 'NONE', #14, #173, #259 ) ;
#147 = VECTOR ( 'NONE', #4, 1000.000000000000000 ) ;
#148 = FACE_OUTER_BOUND ( 'NONE', #75, .T. ) ;
#149 = CARTESIAN_POINT ( 'NONE',  ( -8.000000000000007105, 0.000000000000000000, 0.000000000000000000 ) ) ;
#150 = CARTESIAN_POINT ( 'NONE',  ( -8.000000000000007105, 0.000000000000000000, 0.000000000000000000 ) ) ;
#151 = LINE ( 'NONE', #45, #21 ) ;
#152 = ORIENTED_EDGE ( 'NONE', *, *, #26, .F. ) ;
#153 = STYLED_ITEM ( 'NONE', ( #277 ), #69 ) ;
#154 = AXIS2_PLACEMENT_3D ( 'NONE', #245, #110, #107 ) ;
#155 = ADVANCED_FACE ( 'NONE', ( #202 ), #199, .F. ) ;
#156 = DIRECTION ( 'NONE',  ( 0.000000000000000000, 0.000000000000000000, 1.000000000000000000 ) ) ;
#157 = VERTEX_POINT ( 'NONE', #11 ) ;
#158 = FILL_AREA_STYLE ('',( #48 ) ) ;
#159 = ORIENTED_EDGE ( 'NONE', *, *, #3, .T. ) ;
#160 = CARTESIAN_POINT ( 'NONE',  ( -0.5000000000001669775, 0.000000000000000000, 0.000000000000000000 ) ) ;
#161 = ORIENTED_EDGE ( 'NONE', *, *, #282, .T. ) ;
#162 = CIRCLE ( 'NONE', #28, 14.99999999999999822 ) ;
#163 = CIRCLE ( 'NONE', #46, 25.00000000000000000 ) ;
#164 = FILL_AREA_STYLE_COLOUR ( '', #222 ) ;
#165 = DIRECTION ( 'NONE',  ( 0.000000000000000000, 0.000000000000000000, 1.000000000000000000 ) ) ;
#166 =( NAMED_UNIT ( * ) SI_UNIT ( $, .STERADIAN. ) SOLID_ANGLE_UNIT ( ) );
#167 = EDGE_CURVE ( 'NONE', #126, #334, #321, .T. ) ;
#168 = SURFACE_SIDE_STYLE ('',( #341 ) ) ;
#169 = AXIS2_PLACEMENT_3D ( 'NONE', #150, #15, #235 ) ;
#170 = DIRECTION ( 'NONE',  ( -1.000000000000000000, -0.000000000000000000, -0.000000000000000000 ) ) ;
#171 = DIRECTION ( 'NONE',  ( -0.7071067811866175168, 0.000000000000000000, 0.7071067811864776287 ) ) ;
#172 = ADVANCED_FACE ( 'NONE', ( #148, #175 ), #286, .F. ) ;
#173 = DIRECTION ( 'NONE',  ( -1.000000000000000000, -0.000000000000000000, -0.000000000000000000 ) ) ;
#174 = PRESENTATION_LAYER_ASSIGNMENT (  '', '', ( #153 ) ) ;
#175 = FACE_BOUND ( 'NONE', #208, .T. ) ;
#176 = DIRECTION ( 'NONE',  ( -1.000000000000000000, -0.000000000000000000, -0.000000000000000000 ) ) ;
#177 = DIRECTION ( 'NONE',  ( -1.000000000000000000, 0.000000000000000000, -0.000000000000000000 ) ) ;
#178 = ORIENTED_EDGE ( 'NONE', *, *, #273, .F. ) ;
#179 = CONICAL_SURFACE ( 'NONE', #324, 14.99999999999999822, 0.7853981633973493581 ) ;
#180 = EDGE_LOOP ( 'NONE', ( #275, #331, #131, #100 ) ) ;
#181 = DIRECTION ( 'NONE',  ( -1.000000000000000000, -0.000000000000000000, -0.000000000000000000 ) ) ;
#182 = ORIENTED_EDGE ( 'NONE', *, *, #167, .F. ) ;
#183 = EDGE_CURVE ( 'NONE', #215, #126, #53, .T. ) ;
#184 = CARTESIAN_POINT ( 'NONE',  ( 0.000000000000000000, 0.000000000000000000, 0.000000000000000000 ) ) ;
#185 = ORIENTED_EDGE ( 'NONE', *, *, #51, .F. ) ;
#186 = CARTESIAN_POINT ( 'NONE',  ( -42.15999999999997527, 0.000000000000000000, 25.00000000000000000 ) ) ;
#187 = EDGE_LOOP ( 'NONE', ( #70, #300, #296, #40 ) ) ;
#188 = CARTESIAN_POINT ( 'NONE',  ( -0.5000000000001669775, 0.000000000000000000, 0.000000000000000000 ) ) ;
#189 = EDGE_LOOP ( 'NONE', ( #293, #127, #50, #267 ) ) ;
#190 = ORIENTED_EDGE ( 'NONE', *, *, #272, .F. ) ;
#191 = EDGE_CURVE ( 'NONE', #264, #271, #31, .T. ) ;
#192 = LINE ( 'NONE', #30, #147 ) ;
#193 = DIRECTION ( 'NONE',  ( 0.000000000000000000, 0.000000000000000000, 1.000000000000000000 ) ) ;
#194 = EDGE_CURVE ( 'NONE', #105, #314, #370, .T. ) ;
#195 = FACE_OUTER_BOUND ( 'NONE', #102, .T. ) ;
#196 = CONICAL_SURFACE ( 'NONE', #38, 14.99999999999999822, 0.7853981633973493581 ) ;
#197 = CARTESIAN_POINT ( 'NONE',  ( -178.8300000000000409, 0.000000000000000000, 58.99999999999999289 ) ) ;
#198 = CARTESIAN_POINT ( 'NONE',  ( -42.15999999999997527, 0.000000000000000000, 0.000000000000000000 ) ) ;
#199 = PLANE ( 'NONE',  #253 ) ;
#200 = CARTESIAN_POINT ( 'NONE',  ( -0.5000000000001669775, 1.836970198721029589E-15, -14.99999999999999822 ) ) ;
#201 = AXIS2_PLACEMENT_3D ( 'NONE', #289, #115, #348 ) ;
#202 = FACE_OUTER_BOUND ( 'NONE', #319, .T. ) ;
#203 = ADVANCED_FACE ( 'NONE', ( #226 ), #34, .T. ) ;
#204 = CARTESIAN_POINT ( 'NONE',  ( 0.000000000000000000, 0.000000000000000000, 0.000000000000000000 ) ) ;
#205 = ORIENTED_EDGE ( 'NONE', *, *, #76, .F. ) ;
#206 = DIRECTION ( 'NONE',  ( -1.000000000000000000, -0.000000000000000000, -0.000000000000000000 ) ) ;
#207 = CARTESIAN_POINT ( 'NONE',  ( -208.8300000000000693, 0.000000000000000000, 59.00000000000000000 ) ) ;
#208 = EDGE_LOOP ( 'NONE', ( #237, #328 ) ) ;
#209 = DIRECTION ( 'NONE',  ( 0.000000000000000000, 0.000000000000000000, 1.000000000000000000 ) ) ;
#210 = ORIENTED_EDGE ( 'NONE', *, *, #194, .F. ) ;
#211 =( NAMED_UNIT ( * ) SI_UNIT ( $, .STERADIAN. ) SOLID_ANGLE_UNIT ( ) );
#212 = VERTEX_POINT ( 'NONE', #257 ) ;
#213 =( NAMED_UNIT ( * ) PLANE_ANGLE_UNIT ( ) SI_UNIT ( $, .RADIAN. ) );
#214 = ORIENTED_EDGE ( 'NONE', *, *, #336, .T. ) ;
#215 = VERTEX_POINT ( 'NONE', #39 ) ;
#216 = DIRECTION ( 'NONE',  ( -1.000000000000000000, -0.000000000000000000, -0.000000000000000000 ) ) ;
#217 = VECTOR ( 'NONE', #261, 1000.000000000000000 ) ;
#218 = CYLINDRICAL_SURFACE ( 'NONE', #123, 59.00000000000000000 ) ;
#219 = CARTESIAN_POINT ( 'NONE',  ( -1502.221722416733428, 0.000000000000000000, 0.000000000000000000 ) ) ;
#220 = APPLICATION_CONTEXT ( 'automotive_design' ) ;
#221 = DIRECTION ( 'NONE',  ( 0.000000000000000000, 0.000000000000000000, 1.000000000000000000 ) ) ;
#222 = COLOUR_RGB ( '',1.000000000000000000, 1.000000000000000000, 1.000000000000000000 ) ;
#223 = CARTESIAN_POINT ( 'NONE',  ( 0.000000000000000000, 1.806354028742341463E-15, -14.49999999999992895 ) ) ;
#224 = CIRCLE ( 'NONE', #343, 59.00000000000000000 ) ;
#225 = PRODUCT_RELATED_PRODUCT_CATEGORY ( 'part', '', ( #125 ) ) ;
#226 = FACE_OUTER_BOUND ( 'NONE', #187, .T. ) ;
#227 = CARTESIAN_POINT ( 'NONE',  ( -208.8299999999999841, 59.00000000000000000, 0.000000000000000000 ) ) ;
#228 = CYLINDRICAL_SURFACE ( 'NONE', #146, 14.99999999999999822 ) ;
#229 = AXIS2_PLACEMENT_3D ( 'NONE', #184, #360, #297 ) ;
#230 = EDGE_CURVE ( 'NONE', #129, #271, #130, .T. ) ;
#231 = CARTESIAN_POINT ( 'NONE',  ( -8.000000000000007105, 1.836970198721029589E-15, -14.99999999999999645 ) ) ;
#232 = LINE ( 'NONE', #60, #362 ) ;
#233 =( NAMED_UNIT ( * ) SI_UNIT ( $, .STERADIAN. ) SOLID_ANGLE_UNIT ( ) );
#234 = MECHANICAL_DESIGN_GEOMETRIC_PRESENTATION_REPRESENTATION (  '', ( #303 ), #12 ) ;
#235 = DIRECTION ( 'NONE',  ( 0.000000000000000000, 0.000000000000000000, 1.000000000000000000 ) ) ;
#236 = EDGE_CURVE ( 'NONE', #264, #269, #162, .T. ) ;
#237 = ORIENTED_EDGE ( 'NONE', *, *, #230, .T. ) ;
#238 = DIRECTION ( 'NONE',  ( -1.000000000000000000, -0.000000000000000000, -0.000000000000000000 ) ) ;
#239 = ORIENTED_EDGE ( 'NONE', *, *, #191, .T. ) ;
#240 = ORIENTED_EDGE ( 'NONE', *, *, #51, .T. ) ;
#241 = CIRCLE ( 'NONE', #90, 25.00000000000000000 ) ;
#242 = ADVANCED_FACE ( 'NONE', ( #353 ), #228, .T. ) ;
#243 = DIRECTION ( 'NONE',  ( -1.000000000000000000, -0.000000000000000000, -0.000000000000000000 ) ) ;
#244 = ORIENTED_EDGE ( 'NONE', *, *, #230, .F. ) ;
#245 = CARTESIAN_POINT ( 'NONE',  ( 0.000000000000000000, 0.000000000000000000, 0.000000000000000000 ) ) ;
#246 = CARTESIAN_POINT ( 'NONE',  ( -42.15999999999997527, 0.000000000000000000, 0.000000000000000000 ) ) ;
#247 = DIRECTION ( 'NONE',  ( -1.000000000000000000, -0.000000000000000000, -0.000000000000000000 ) ) ;
#248 = AXIS2_PLACEMENT_3D ( 'NONE', #149, #206, #327 ) ;
#249 = CARTESIAN_POINT ( 'NONE',  ( -178.8300000000000409, 0.000000000000000000, 0.000000000000000000 ) ) ;
#250 = DIRECTION ( 'NONE',  ( -1.000000000000000000, -0.000000000000000000, -0.000000000000000000 ) ) ;
#251 = CARTESIAN_POINT ( 'NONE',  ( -42.15999999999997527, 0.000000000000000000, 25.00000000000000000 ) ) ;
#252 = UNCERTAINTY_MEASURE_WITH_UNIT (LENGTH_MEASURE( 1.000000000000000082E-05 ), #124, 'distance_accuracy_value', 'NONE');
#253 = AXIS2_PLACEMENT_3D ( 'NONE', #283, #177, #312 ) ;
#254 = AXIS2_PLACEMENT_3D ( 'NONE', #204, #67, #66 ) ;
#255 = CARTESIAN_POINT ( 'NONE',  ( -178.8300000000000409, 0.000000000000000000, 0.000000000000000000 ) ) ;
#256 = ORIENTED_EDGE ( 'NONE', *, *, #57, .T. ) ;
#257 = CARTESIAN_POINT ( 'NONE',  ( -42.15999999999997527, 3.061616997868383437E-15, -25.00000000000000355 ) ) ;
#258 = EDGE_LOOP ( 'NONE', ( #205, #363, #22, #361 ) ) ;
#259 = DIRECTION ( 'NONE',  ( 0.000000000000000000, 0.000000000000000000, 1.000000000000000000 ) ) ;
#260 = ADVANCED_FACE ( 'NONE', ( #91 ), #13, .F. ) ;
#261 = DIRECTION ( 'NONE',  ( -1.000000000000000000, -0.000000000000000000, -0.000000000000000000 ) ) ;
#262 = DIRECTION ( 'NONE',  ( -1.000000000000000000, -0.000000000000000000, -0.000000000000000000 ) ) ;
#263 = DIRECTION ( 'NONE',  ( 0.000000000000000000, 0.000000000000000000, 1.000000000000000000 ) ) ;
#264 = VERTEX_POINT ( 'NONE', #200 ) ;
#265 = CARTESIAN_POINT ( 'NONE',  ( -1502.221722416733428, 3.061616997868382648E-15, -24.99999999999999645 ) ) ;
#266 = AXIS2_PLACEMENT_3D ( 'NONE', #246, #338, #112 ) ;
#267 = ORIENTED_EDGE ( 'NONE', *, *, #183, .F. ) ;
#268 = DIRECTION ( 'NONE',  ( -0.9704216965567850073, 2.956494478187454564E-17, -0.2414160948483988212 ) ) ;
#269 = VERTEX_POINT ( 'NONE', #118 ) ;
#270 = SURFACE_STYLE_USAGE ( .BOTH. , #121 ) ;
#271 = VERTEX_POINT ( 'NONE', #231 ) ;
#272 = EDGE_CURVE ( 'NONE', #287, #301, #317, .T. ) ;
#273 = EDGE_CURVE ( 'NONE', #314, #269, #232, .T. ) ;
#274 = APPLICATION_PROTOCOL_DEFINITION ( 'draft international standard', 'automotive_design', 1998, #358 ) ;
#275 = ORIENTED_EDGE ( 'NONE', *, *, #103, .T. ) ;
#276 = AXIS2_PLACEMENT_3D ( 'NONE', #160, #97, #263 ) ;
#277 = PRESENTATION_STYLE_ASSIGNMENT (( #25 ) ) ;
#278 = FILL_AREA_STYLE ('',( #164 ) ) ;
#279 = VECTOR ( 'NONE', #181, 1000.000000000000000 ) ;
#280 = DIRECTION ( 'NONE',  ( -1.000000000000000000, -0.000000000000000000, -0.000000000000000000 ) ) ;
#281 = CARTESIAN_POINT ( 'NONE',  ( -208.8300000000000693, 7.225416114969383207E-15, -59.00000000000000000 ) ) ;
#282 = EDGE_CURVE ( 'NONE', #157, #287, #241, .T. ) ;
#283 = CARTESIAN_POINT ( 'NONE',  ( 0.000000000000000000, 0.000000000000000000, 0.000000000000000000 ) ) ;
#284 = AXIS2_PLACEMENT_3D ( 'NONE', #84, #216, #335 ) ;
#285 = CYLINDRICAL_SURFACE ( 'NONE', #330, 24.99999999999999645 ) ;
#286 = PLANE ( 'NONE',  #117 ) ;
#287 = VERTEX_POINT ( 'NONE', #41 ) ;
#288 = CARTESIAN_POINT ( 'NONE',  ( -8.000000000000007105, 0.000000000000000000, 0.000000000000000000 ) ) ;
#289 = CARTESIAN_POINT ( 'NONE',  ( -1502.221722416733428, 0.000000000000000000, 0.000000000000000000 ) ) ;
#290 = VECTOR ( 'NONE', #295, 1000.000000000000000 ) ;
#291 = ORIENTED_EDGE ( 'NONE', *, *, #3, .F. ) ;
#292 =( LENGTH_UNIT ( ) NAMED_UNIT ( * ) SI_UNIT ( .MILLI., .METRE. ) );
#293 = ORIENTED_EDGE ( 'NONE', *, *, #366, .F. ) ;
#294 = PRODUCT_DEFINITION ( 'Î´Öª', '', #113, #1 ) ;
#295 = DIRECTION ( 'NONE',  ( -1.000000000000000000, -0.000000000000000000, -0.000000000000000000 ) ) ;
#296 = ORIENTED_EDGE ( 'NONE', *, *, #340, .T. ) ;
#297 = DIRECTION ( 'NONE',  ( 0.000000000000000000, 0.000000000000000000, 1.000000000000000000 ) ) ;
#298 = AXIS2_PLACEMENT_3D ( 'NONE', #71, #243, #17 ) ;
#299 = ORIENTED_EDGE ( 'NONE', *, *, #76, .T. ) ;
#300 = ORIENTED_EDGE ( 'NONE', *, *, #236, .T. ) ;
#301 = VERTEX_POINT ( 'NONE', #186 ) ;
#302 = EDGE_LOOP ( 'NONE', ( #185, #365, #333, #47 ) ) ;
#303 = STYLED_ITEM ( 'NONE', ( #128 ), #23 ) ;
#304 = EDGE_CURVE ( 'NONE', #271, #129, #342, .T. ) ;
#305 = CARTESIAN_POINT ( 'NONE',  ( -42.15999999999997527, 0.000000000000000000, 0.000000000000000000 ) ) ;
#306 = EDGE_CURVE ( 'NONE', #18, #334, #95, .T. ) ;
#307 =( LENGTH_UNIT ( ) NAMED_UNIT ( * ) SI_UNIT ( .MILLI., .METRE. ) );
#308 = MECHANICAL_DESIGN_GEOMETRIC_PRESENTATION_REPRESENTATION (  '', ( #153 ), #16 ) ;
#309 = CONICAL_SURFACE ( 'NONE', #24, 25.00000000000000000, 0.2438248439791809163 ) ;
#310 = ADVANCED_FACE ( 'NONE', ( #364 ), #196, .T. ) ;
#311 = FACE_OUTER_BOUND ( 'NONE', #357, .T. ) ;
#312 = DIRECTION ( 'NONE',  ( -0.000000000000000000, 0.000000000000000000, 1.000000000000000000 ) ) ;
#313 = DIRECTION ( 'NONE',  ( 0.000000000000000000, 0.000000000000000000, 1.000000000000000000 ) ) ;
#314 = VERTEX_POINT ( 'NONE', #73 ) ;
#315 = EDGE_CURVE ( 'NONE', #269, #264, #355, .T. ) ;
#316 = VECTOR ( 'NONE', #114, 1000.000000000000000 ) ;
#317 = LINE ( 'NONE', #119, #44 ) ;
#318 = CIRCLE ( 'NONE', #96, 59.00000000000000000 ) ;
#319 = EDGE_LOOP ( 'NONE', ( #214, #65 ) ) ;
#320 = CARTESIAN_POINT ( 'NONE',  ( -8.000000000000000000, 14.99999999999999645, 0.000000000000000000 ) ) ;
#321 = LINE ( 'NONE', #93, #217 ) ;
#322 = ORIENTED_EDGE ( 'NONE', *, *, #103, .F. ) ;
#323 = LINE ( 'NONE', #265, #290 ) ;
#324 = AXIS2_PLACEMENT_3D ( 'NONE', #2, #247, #165 ) ;
#325 = CARTESIAN_POINT ( 'NONE',  ( -1502.221722416733428, 0.000000000000000000, 14.99999999999999822 ) ) ;
#326 = ORIENTED_EDGE ( 'NONE', *, *, #282, .F. ) ;
#327 = DIRECTION ( 'NONE',  ( 0.000000000000000000, 0.000000000000000000, 1.000000000000000000 ) ) ;
#328 = ORIENTED_EDGE ( 'NONE', *, *, #304, .T. ) ;
#329 = LINE ( 'NONE', #325, #279 ) ;
#330 = AXIS2_PLACEMENT_3D ( 'NONE', #143, #349, #33 ) ;
#331 = ORIENTED_EDGE ( 'NONE', *, *, #366, .T. ) ;
#332 = CLOSED_SHELL ( 'NONE', ( #37, #81, #32, #138, #242, #155, #203, #172, #133, #43, #120, #260, #310 ) ) ;
#333 = ORIENTED_EDGE ( 'NONE', *, *, #273, .T. ) ;
#334 = VERTEX_POINT ( 'NONE', #207 ) ;
#335 = DIRECTION ( 'NONE',  ( 0.000000000000000000, 0.000000000000000000, 1.000000000000000000 ) ) ;
#336 = EDGE_CURVE ( 'NONE', #314, #105, #85, .T. ) ;
#337 = AXIS2_PLACEMENT_3D ( 'NONE', #255, #262, #313 ) ;
#338 = DIRECTION ( 'NONE',  ( -1.000000000000000000, -0.000000000000000000, -0.000000000000000000 ) ) ;
#339 = DIRECTION ( 'NONE',  ( 0.000000000000000000, 0.000000000000000000, 1.000000000000000000 ) ) ;
#340 = EDGE_CURVE ( 'NONE', #269, #129, #329, .T. ) ;
#341 = SURFACE_STYLE_FILL_AREA ( #278 ) ;
#342 = CIRCLE ( 'NONE', #248, 14.99999999999999645 ) ;
#343 = AXIS2_PLACEMENT_3D ( 'NONE', #72, #78, #122 ) ;
#344 = CYLINDRICAL_SURFACE ( 'NONE', #284, 59.00000000000000000 ) ;
#345 = DIRECTION ( 'NONE',  ( -1.000000000000000000, -0.000000000000000000, -0.000000000000000000 ) ) ;
#346 = DIRECTION ( 'NONE',  ( 1.000000000000000000, 0.000000000000000000, 0.000000000000000000 ) ) ;
#347 = AXIS2_PLACEMENT_3D ( 'NONE', #87, #176, #64 ) ;
#348 = DIRECTION ( 'NONE',  ( 0.000000000000000000, 0.000000000000000000, 1.000000000000000000 ) ) ;
#349 = DIRECTION ( 'NONE',  ( -1.000000000000000000, -0.000000000000000000, -0.000000000000000000 ) ) ;
#350 = UNCERTAINTY_MEASURE_WITH_UNIT (LENGTH_MEASURE( 1.000000000000000082E-05 ), #307, 'distance_accuracy_value', 'NONE');
#351 = EDGE_CURVE ( 'NONE', #157, #212, #323, .T. ) ;
#352 = PRODUCT_DEFINITION_SHAPE ( 'NONE', 'NONE',  #294 ) ;
#353 = FACE_OUTER_BOUND ( 'NONE', #106, .T. ) ;
#354 = ORIENTED_EDGE ( 'NONE', *, *, #315, .T. ) ;
#355 = CIRCLE ( 'NONE', #276, 14.99999999999999822 ) ;
#356 = DIRECTION ( 'NONE',  ( -1.000000000000000000, -0.000000000000000000, -0.000000000000000000 ) ) ;
#357 = EDGE_LOOP ( 'NONE', ( #42, #161, #19, #152 ) ) ;
#358 = APPLICATION_CONTEXT ( 'automotive_design' ) ;
#359 = EDGE_LOOP ( 'NONE', ( #256, #299, #291, #182 ) ) ;
#360 = DIRECTION ( 'NONE',  ( 1.000000000000000000, 0.000000000000000000, 0.000000000000000000 ) ) ;
#361 = ORIENTED_EDGE ( 'NONE', *, *, #306, .F. ) ;
#362 = VECTOR ( 'NONE', #171, 1000.000000000000000 ) ;
#363 = ORIENTED_EDGE ( 'NONE', *, *, #183, .T. ) ;
#364 = FACE_OUTER_BOUND ( 'NONE', #302, .T. ) ;
#365 = ORIENTED_EDGE ( 'NONE', *, *, #336, .F. ) ;
#366 = EDGE_CURVE ( 'NONE', #212, #215, #151, .T. ) ;
#367 = APPLICATION_PROTOCOL_DEFINITION ( 'draft international standard', 'automotive_design', 1998, #220 ) ;
#368 = FACE_OUTER_BOUND ( 'NONE', #180, .T. ) ;
#369 = FACE_OUTER_BOUND ( 'NONE', #189, .T. ) ;
#370 = CIRCLE ( 'NONE', #254, 14.49999999999992895 ) ;
ENDSEC;
END-ISO-10303-21;
