ISO-10303-21;
HEADER;
FILE_DESCRIPTION (( 'STEP AP203' ),
    '1' );
FILE_NAME ('25.4.STEP',
    '2025-12-24T01:28:19',
    ( 'Windows User' ),
    ( 'P R C' ),
    'SwSTEP 2.0',
    'SolidWorks 2020',
    '' );
FILE_SCHEMA (( 'CONFIG_CONTROL_DESIGN' ));
ENDSEC;

DATA;
#1 = VERTEX_POINT ( 'NONE', #162 ) ;
#2 = CALENDAR_DATE ( 2025, 24, 12 ) ;
#3 = PLANE ( 'NONE',  #175 ) ;
#4 = FACE_OUTER_BOUND ( 'NONE', #75, .T. ) ;
#5 = APPLICATION_PROTOCOL_DEFINITION ( 'international standard', 'config_control_design', 1994, #9 ) ;
#6 = APPROVAL_ROLE ( '' ) ;
#7 = EDGE_CURVE ( 'NONE', #124, #124, #44, .T. ) ;
#8 = EDGE_LOOP ( 'NONE', ( #38 ) ) ;
#9 = APPLICATION_CONTEXT ( 'configuration controlled 3d designs of mechanical parts and assemblies' ) ;
#10 = APPROVAL_ROLE ( '' ) ;
#11 = ORIENTED_EDGE ( 'NONE', *, *, #31, .F. ) ;
#12 = ADVANCED_FACE ( 'NONE', ( #105 ), #61, .F. ) ;
#13 = CARTESIAN_POINT ( 'NONE',  ( 12.69999999999999929, 0.000000000000000000, 0.1999999999999970690 ) ) ;
#14 = PERSON_AND_ORGANIZATION ( #143, #26 ) ;
#15 = FACE_OUTER_BOUND ( 'NONE', #8, .T. ) ;
#16 = APPLICATION_CONTEXT ( 'configuration controlled 3d designs of mechanical parts and assemblies' ) ;
#17 = CC_DESIGN_SECURITY_CLASSIFICATION ( #114, ( #64 ) ) ;
#18 = DIRECTION ( 'NONE',  ( 1.000000000000000000, 0.000000000000000000, 0.000000000000000000 ) ) ;
#19 = DATE_AND_TIME ( #104, #136 ) ;
#20 = PERSON_AND_ORGANIZATION_ROLE ( 'design_owner' ) ;
#21 = DESIGN_CONTEXT ( 'detailed design', #16, 'design' ) ;
#22 = EDGE_LOOP ( 'NONE', ( #147 ) ) ;
#23 = AXIS2_PLACEMENT_3D ( 'NONE', #87, #167, #116 ) ;
#24 = EDGE_LOOP ( 'NONE', ( #132 ) ) ;
#25 = COORDINATED_UNIVERSAL_TIME_OFFSET ( 8, 0, .AHEAD. ) ;
#26 = ORGANIZATION ( 'Î´Ö¸¶¨', 'Î´Ö¸¶¨', '' ) ;
#27 = PERSON_AND_ORGANIZATION_ROLE ( 'design_supplier' ) ;
#28 = DIRECTION ( 'NONE',  ( -1.000000000000000000, 0.000000000000000000, 0.000000000000000000 ) ) ;
#29 = CIRCLE ( 'NONE', #131, 12.50000000000000000 ) ;
#30 = DIRECTION ( 'NONE',  ( 0.000000000000000000, 0.000000000000000000, -1.000000000000000000 ) ) ;
#31 = EDGE_CURVE ( 'NONE', #85, #85, #29, .T. ) ;
#32 = DIRECTION ( 'NONE',  ( 1.000000000000000000, 0.000000000000000000, 0.000000000000000000 ) ) ;
#33 = APPROVAL ( #42, 'Î´Ö¸¶¨' ) ;
#34 = COORDINATED_UNIVERSAL_TIME_OFFSET ( 8, 0, .AHEAD. ) ;
#35 = COORDINATED_UNIVERSAL_TIME_OFFSET ( 8, 0, .AHEAD. ) ;
#36 = LOCAL_TIME ( 9, 28, 19.00000000000000000, #25 ) ;
#37 = UNCERTAINTY_MEASURE_WITH_UNIT (LENGTH_MEASURE( 1.000000000000000082E-05 ), #43, 'distance_accuracy_value', 'NONE');
#38 = ORIENTED_EDGE ( 'NONE', *, *, #7, .T. ) ;
#39 = SHAPE_DEFINITION_REPRESENTATION ( #100, #127 ) ;
#40 = ORIENTED_EDGE ( 'NONE', *, *, #7, .F. ) ;
#41 = CC_DESIGN_PERSON_AND_ORGANIZATION_ASSIGNMENT ( #14, #27, ( #64 ) ) ;
#42 = APPROVAL_STATUS ( 'not_yet_approved' ) ;
#43 =( LENGTH_UNIT ( ) NAMED_UNIT ( * ) SI_UNIT ( .MILLI., .METRE. ) );
#44 = CIRCLE ( 'NONE', #152, 12.69999999999999929 ) ;
#45 = DIRECTION ( 'NONE',  ( -0.000000000000000000, -0.000000000000000000, -1.000000000000000000 ) ) ;
#46 = CC_DESIGN_DATE_AND_TIME_ASSIGNMENT ( #169, #83, ( #106 ) ) ;
#47 = DIRECTION ( 'NONE',  ( 0.000000000000000000, 0.000000000000000000, 1.000000000000000000 ) ) ;
#48 = CARTESIAN_POINT ( 'NONE',  ( 0.000000000000000000, 0.000000000000000000, 0.000000000000000000 ) ) ;
#49 = EDGE_LOOP ( 'NONE', ( #90 ) ) ;
#50 = DATE_AND_TIME ( #107, #36 ) ;
#51 = APPROVAL_PERSON_ORGANIZATION ( #137, #33, #96 ) ;
#52 = CIRCLE ( 'NONE', #76, 12.69999999999999929 ) ;
#53 = CARTESIAN_POINT ( 'NONE',  ( 0.000000000000000000, 0.000000000000000000, 3.000000000000000000 ) ) ;
#54 = PERSON_AND_ORGANIZATION ( #143, #26 ) ;
#55 = APPROVAL ( #73, 'Î´Ö¸¶¨' ) ;
#56 = DIRECTION ( 'NONE',  ( 1.000000000000000000, 0.000000000000000000, -0.000000000000000000 ) ) ;
#57 = CARTESIAN_POINT ( 'NONE',  ( 0.000000000000000000, 0.000000000000000000, 3.000000000000000000 ) ) ;
#58 = PERSON_AND_ORGANIZATION ( #143, #26 ) ;
#59 = CALENDAR_DATE ( 2025, 24, 12 ) ;
#60 = DATE_AND_TIME ( #92, #108 ) ;
#61 = PLANE ( 'NONE',  #146 ) ;
#62 = CARTESIAN_POINT ( 'NONE',  ( 0.000000000000000000, 0.000000000000000000, 0.1999999999999970690 ) ) ;
#63 = APPROVAL ( #171, 'Î´Ö¸¶¨' ) ;
#64 = PRODUCT_DEFINITION_FORMATION_WITH_SPECIFIED_SOURCE ( 'ÈÎºÎ', '', #72, .NOT_KNOWN. ) ;
#65 = FACE_OUTER_BOUND ( 'NONE', #49, .T. ) ;
#66 = DIRECTION ( 'NONE',  ( -0.000000000000000000, -0.000000000000000000, -1.000000000000000000 ) ) ;
#67 = COORDINATED_UNIVERSAL_TIME_OFFSET ( 8, 0, .AHEAD. ) ;
#68 = CARTESIAN_POINT ( 'NONE',  ( 12.50000000000000533, 0.000000000000000000, 3.000000000000000000 ) ) ;
#69 = CC_DESIGN_PERSON_AND_ORGANIZATION_ASSIGNMENT ( #142, #20, ( #72 ) ) ;
#70 = CARTESIAN_POINT ( 'NONE',  ( 0.000000000000000000, 0.000000000000000000, 0.000000000000000000 ) ) ;
#71 = DIRECTION ( 'NONE',  ( 1.000000000000000000, 0.000000000000000000, -0.000000000000000000 ) ) ;
#72 = PRODUCT ( '25.4', '25.4', '', ( #119 ) ) ;
#73 = APPROVAL_STATUS ( 'not_yet_approved' ) ;
#74 = AXIS2_PLACEMENT_3D ( 'NONE', #103, #166, #18 ) ;
#75 = EDGE_LOOP ( 'NONE', ( #40 ) ) ;
#76 = AXIS2_PLACEMENT_3D ( 'NONE', #117, #151, #139 ) ;
#77 = APPROVAL_DATE_TIME ( #60, #63 ) ;
#78 = EDGE_CURVE ( 'NONE', #1, #1, #52, .T. ) ;
#79 = EDGE_LOOP ( 'NONE', ( #11 ) ) ;
#80 = ADVANCED_FACE ( 'NONE', ( #126 ), #3, .T. ) ;
#81 = MANIFOLD_SOLID_BREP ( 'µ¹½Ç1', #123 ) ;
#82 = CONICAL_SURFACE ( 'NONE', #110, 12.50000000000000533, 0.7853981633974526089 ) ;
#83 = DATE_TIME_ROLE ( 'creation_date' ) ;
#84 = DATE_AND_TIME ( #2, #148 ) ;
#85 = VERTEX_POINT ( 'NONE', #113 ) ;
#86 = DIRECTION ( 'NONE',  ( -1.000000000000000000, 0.000000000000000000, 0.000000000000000000 ) ) ;
#87 = CARTESIAN_POINT ( 'NONE',  ( 0.000000000000000000, 0.000000000000000000, 3.000000000000000000 ) ) ;
#88 = DIRECTION ( 'NONE',  ( 1.000000000000000000, 0.000000000000000000, 0.000000000000000000 ) ) ;
#89 = AXIS2_PLACEMENT_3D ( 'NONE', #53, #66, #28 ) ;
#90 = ORIENTED_EDGE ( 'NONE', *, *, #78, .T. ) ;
#91 = EDGE_LOOP ( 'NONE', ( #133 ) ) ;
#92 = CALENDAR_DATE ( 2025, 24, 12 ) ;
#93 = EDGE_CURVE ( 'NONE', #150, #150, #99, .T. ) ;
#94 = CC_DESIGN_PERSON_AND_ORGANIZATION_ASSIGNMENT ( #54, #138, ( #64 ) ) ;
#95 = CYLINDRICAL_SURFACE ( 'NONE', #89, 12.69999999999999929 ) ;
#96 = APPROVAL_ROLE ( '' ) ;
#97 =( NAMED_UNIT ( * ) PLANE_ANGLE_UNIT ( ) SI_UNIT ( $, .RADIAN. ) );
#98 = DIRECTION ( 'NONE',  ( 0.000000000000000000, 0.000000000000000000, 1.000000000000000000 ) ) ;
#99 = CIRCLE ( 'NONE', #23, 12.50000000000000533 ) ;
#100 = PRODUCT_DEFINITION_SHAPE ( 'NONE', 'NONE',  #106 ) ;
#101 = CARTESIAN_POINT ( 'NONE',  ( 0.000000000000000000, 0.000000000000000000, 3.000000000000000000 ) ) ;
#102 = PERSON_AND_ORGANIZATION ( #143, #26 ) ;
#103 = CARTESIAN_POINT ( 'NONE',  ( 0.000000000000000000, 0.000000000000000000, 0.1999999999999970690 ) ) ;
#104 = CALENDAR_DATE ( 2025, 24, 12 ) ;
#105 = FACE_OUTER_BOUND ( 'NONE', #24, .T. ) ;
#106 = PRODUCT_DEFINITION ( 'Î´Öª', '', #64, #21 ) ;
#107 = CALENDAR_DATE ( 2025, 24, 12 ) ;
#108 = LOCAL_TIME ( 9, 28, 19.00000000000000000, #134 ) ;
#109 = DATE_TIME_ROLE ( 'classification_date' ) ;
#110 = AXIS2_PLACEMENT_3D ( 'NONE', #101, #30, #86 ) ;
#111 = ADVANCED_FACE ( 'NONE', ( #141, #4 ), #174, .T. ) ;
#112 =( NAMED_UNIT ( * ) SI_UNIT ( $, .STERADIAN. ) SOLID_ANGLE_UNIT ( ) );
#113 = CARTESIAN_POINT ( 'NONE',  ( 12.50000000000000000, 0.000000000000000000, 0.000000000000000000 ) ) ;
#114 = SECURITY_CLASSIFICATION ( '', '', #125 ) ;
#115 = PERSON_AND_ORGANIZATION ( #143, #26 ) ;
#116 = DIRECTION ( 'NONE',  ( 1.000000000000000000, 0.000000000000000000, 0.000000000000000000 ) ) ;
#117 = CARTESIAN_POINT ( 'NONE',  ( 0.000000000000000000, 0.000000000000000000, 2.800000000000008260 ) ) ;
#118 = PERSON_AND_ORGANIZATION_ROLE ( 'creator' ) ;
#119 = MECHANICAL_CONTEXT ( 'NONE', #9, 'mechanical' ) ;
#120 = DIRECTION ( 'NONE',  ( 1.000000000000000000, 0.000000000000000000, 0.000000000000000000 ) ) ;
#121 = DIRECTION ( 'NONE',  ( -0.000000000000000000, -0.000000000000000000, 1.000000000000000000 ) ) ;
#122 = CC_DESIGN_APPROVAL ( #55, ( #106 ) ) ;
#123 = CLOSED_SHELL ( 'NONE', ( #161, #80, #12, #111, #159 ) ) ;
#124 = VERTEX_POINT ( 'NONE', #13 ) ;
#125 = SECURITY_CLASSIFICATION_LEVEL ( 'unclassified' ) ;
#126 = FACE_OUTER_BOUND ( 'NONE', #172, .T. ) ;
#127 = ADVANCED_BREP_SHAPE_REPRESENTATION ( '25.4', ( #81, #160 ), #135 ) ;
#128 = CC_DESIGN_DATE_AND_TIME_ASSIGNMENT ( #50, #109, ( #114 ) ) ;
#129 = FACE_OUTER_BOUND ( 'NONE', #22, .T. ) ;
#130 = APPROVAL_PERSON_ORGANIZATION ( #102, #55, #6 ) ;
#131 = AXIS2_PLACEMENT_3D ( 'NONE', #70, #45, #32 ) ;
#132 = ORIENTED_EDGE ( 'NONE', *, *, #31, .T. ) ;
#133 = ORIENTED_EDGE ( 'NONE', *, *, #93, .F. ) ;
#134 = COORDINATED_UNIVERSAL_TIME_OFFSET ( 8, 0, .AHEAD. ) ;
#135 =( GEOMETRIC_REPRESENTATION_CONTEXT ( 3 ) GLOBAL_UNCERTAINTY_ASSIGNED_CONTEXT ( ( #37 ) ) GLOBAL_UNIT_ASSIGNED_CONTEXT ( ( #43, #97, #112 ) ) REPRESENTATION_CONTEXT ( 'NONE', 'WORKASPACE' ) );
#136 = LOCAL_TIME ( 9, 28, 19.00000000000000000, #34 ) ;
#137 = PERSON_AND_ORGANIZATION ( #143, #26 ) ;
#138 = PERSON_AND_ORGANIZATION_ROLE ( 'creator' ) ;
#139 = DIRECTION ( 'NONE',  ( 1.000000000000000000, 0.000000000000000000, 0.000000000000000000 ) ) ;
#140 = CC_DESIGN_PERSON_AND_ORGANIZATION_ASSIGNMENT ( #58, #118, ( #106 ) ) ;
#141 = FACE_BOUND ( 'NONE', #79, .T. ) ;
#142 = PERSON_AND_ORGANIZATION ( #143, #26 ) ;
#143 = PERSON ( 'Î´Ö¸¶¨', 'Î´Ö¸¶¨', 'Î´Ö¸¶¨', ('Î´Ö¸¶¨'), ('Î´Ö¸¶¨'), ('Î´Ö¸¶¨') ) ;
#144 = LOCAL_TIME ( 9, 28, 19.00000000000000000, #35 ) ;
#145 = APPROVAL_PERSON_ORGANIZATION ( #158, #63, #10 ) ;
#146 = AXIS2_PLACEMENT_3D ( 'NONE', #170, #98, #71 ) ;
#147 = ORIENTED_EDGE ( 'NONE', *, *, #78, .F. ) ;
#148 = LOCAL_TIME ( 9, 28, 19.00000000000000000, #67 ) ;
#149 = APPROVAL_DATE_TIME ( #84, #33 ) ;
#150 = VERTEX_POINT ( 'NONE', #68 ) ;
#151 = DIRECTION ( 'NONE',  ( 0.000000000000000000, 0.000000000000000000, -1.000000000000000000 ) ) ;
#152 = AXIS2_PLACEMENT_3D ( 'NONE', #62, #121, #120 ) ;
#153 = CC_DESIGN_PERSON_AND_ORGANIZATION_ASSIGNMENT ( #115, #165, ( #114 ) ) ;
#154 = FACE_BOUND ( 'NONE', #91, .T. ) ;
#155 = APPROVAL_DATE_TIME ( #19, #55 ) ;
#156 = APPLICATION_PROTOCOL_DEFINITION ( 'international standard', 'config_control_design', 1994, #16 ) ;
#157 = ORIENTED_EDGE ( 'NONE', *, *, #93, .T. ) ;
#158 = PERSON_AND_ORGANIZATION ( #143, #26 ) ;
#159 = ADVANCED_FACE ( 'NONE', ( #129, #154 ), #82, .T. ) ;
#160 = AXIS2_PLACEMENT_3D ( 'NONE', #48, #168, #88 ) ;
#161 = ADVANCED_FACE ( 'NONE', ( #15, #65 ), #95, .T. ) ;
#162 = CARTESIAN_POINT ( 'NONE',  ( 12.69999999999999929, 0.000000000000000000, 2.800000000000008260 ) ) ;
#163 = CC_DESIGN_APPROVAL ( #33, ( #64 ) ) ;
#164 = PRODUCT_RELATED_PRODUCT_CATEGORY ( 'detail', '', ( #72 ) ) ;
#165 = PERSON_AND_ORGANIZATION_ROLE ( 'classification_officer' ) ;
#166 = DIRECTION ( 'NONE',  ( -0.000000000000000000, -0.000000000000000000, 1.000000000000000000 ) ) ;
#167 = DIRECTION ( 'NONE',  ( 0.000000000000000000, 0.000000000000000000, 1.000000000000000000 ) ) ;
#168 = DIRECTION ( 'NONE',  ( 0.000000000000000000, 0.000000000000000000, 1.000000000000000000 ) ) ;
#169 = DATE_AND_TIME ( #59, #144 ) ;
#170 = CARTESIAN_POINT ( 'NONE',  ( 0.000000000000000000, 0.000000000000000000, 0.000000000000000000 ) ) ;
#171 = APPROVAL_STATUS ( 'not_yet_approved' ) ;
#172 = EDGE_LOOP ( 'NONE', ( #157 ) ) ;
#173 = CC_DESIGN_APPROVAL ( #63, ( #114 ) ) ;
#174 = CONICAL_SURFACE ( 'NONE', #74, 12.69999999999999929, 0.7853981633974526089 ) ;
#175 = AXIS2_PLACEMENT_3D ( 'NONE', #57, #47, #56 ) ;
ENDSEC;
END-ISO-10303-21;
