ISO-10303-21;
HEADER;
FILE_DESCRIPTION (( 'STEP AP203' ),
    '1' );
FILE_NAME ('Áã¼þ2.STEP',
    '2025-12-24T01:29:20',
    ( 'Windows User' ),
    ( 'P R C' ),
    'SwSTEP 2.0',
    'SolidWorks 2020',
    '' );
FILE_SCHEMA (( 'CONFIG_CONTROL_DESIGN' ));
ENDSEC;

DATA;
#1 = CARTESIAN_POINT ( 'NONE',  ( 0.000000000000000000, 0.000000000000000000, 2.799999999999997158 ) ) ;
#2 = FACE_OUTER_BOUND ( 'NONE', #165, .T. ) ;
#3 = FACE_OUTER_BOUND ( 'NONE', #140, .T. ) ;
#4 = EDGE_CURVE ( 'NONE', #100, #100, #5, .T. ) ;
#5 = CIRCLE ( 'NONE', #163, 5.500000000000000888 ) ;
#6 = CARTESIAN_POINT ( 'NONE',  ( 5.500000000000000888, 0.000000000000000000, 0.1999999999999987899 ) ) ;
#7 = CC_DESIGN_SECURITY_CLASSIFICATION ( #51, ( #36 ) ) ;
#8 = DIRECTION ( 'NONE',  ( 1.000000000000000000, 0.000000000000000000, 0.000000000000000000 ) ) ;
#9 = FACE_OUTER_BOUND ( 'NONE', #153, .T. ) ;
#10 = DIRECTION ( 'NONE',  ( 1.000000000000000000, 0.000000000000000000, 0.000000000000000000 ) ) ;
#11 = ADVANCED_FACE ( 'NONE', ( #90 ), #19, .T. ) ;
#12 = MECHANICAL_CONTEXT ( 'NONE', #41, 'mechanical' ) ;
#13 = COORDINATED_UNIVERSAL_TIME_OFFSET ( 8, 0, .AHEAD. ) ;
#14 = APPROVAL_STATUS ( 'not_yet_approved' ) ;
#15 = AXIS2_PLACEMENT_3D ( 'NONE', #55, #35, #91 ) ;
#16 = PERSON_AND_ORGANIZATION ( #74, #118 ) ;
#17 = LOCAL_TIME ( 9, 29, 20.00000000000000000, #117 ) ;
#18 = ORIENTED_EDGE ( 'NONE', *, *, #85, .T. ) ;
#19 = PLANE ( 'NONE',  #50 ) ;
#20 = CALENDAR_DATE ( 2025, 24, 12 ) ;
#21 = ORIENTED_EDGE ( 'NONE', *, *, #58, .T. ) ;
#22 = EDGE_CURVE ( 'NONE', #28, #28, #169, .T. ) ;
#23 = UNCERTAINTY_MEASURE_WITH_UNIT (LENGTH_MEASURE( 1.000000000000000082E-05 ), #76, 'distance_accuracy_value', 'NONE');
#24 = AXIS2_PLACEMENT_3D ( 'NONE', #112, #161, #151 ) ;
#25 = DIRECTION ( 'NONE',  ( -1.000000000000000000, 0.000000000000000000, 0.000000000000000000 ) ) ;
#26 = PERSON_AND_ORGANIZATION ( #74, #118 ) ;
#27 = ADVANCED_FACE ( 'NONE', ( #2, #3 ), #59, .T. ) ;
#28 = VERTEX_POINT ( 'NONE', #6 ) ;
#29 = LOCAL_TIME ( 9, 29, 20.00000000000000000, #170 ) ;
#30 = ADVANCED_FACE ( 'NONE', ( #57 ), #164, .F. ) ;
#31 = DATE_AND_TIME ( #146, #29 ) ;
#32 = APPROVAL_ROLE ( '' ) ;
#33 = CIRCLE ( 'NONE', #150, 5.300000000000000711 ) ;
#34 = DIRECTION ( 'NONE',  ( 0.000000000000000000, 0.000000000000000000, -1.000000000000000000 ) ) ;
#35 = DIRECTION ( 'NONE',  ( 0.000000000000000000, 0.000000000000000000, 1.000000000000000000 ) ) ;
#36 = PRODUCT_DEFINITION_FORMATION_WITH_SPECIFIED_SOURCE ( 'ÈÎºÎ', '', #66, .NOT_KNOWN. ) ;
#37 = FACE_BOUND ( 'NONE', #96, .T. ) ;
#38 = DIRECTION ( 'NONE',  ( 0.000000000000000000, 0.000000000000000000, 1.000000000000000000 ) ) ;
#39 = CC_DESIGN_PERSON_AND_ORGANIZATION_ASSIGNMENT ( #43, #106, ( #36 ) ) ;
#40 = DIRECTION ( 'NONE',  ( -0.000000000000000000, -0.000000000000000000, -1.000000000000000000 ) ) ;
#41 = APPLICATION_CONTEXT ( 'configuration controlled 3d designs of mechanical parts and assemblies' ) ;
#42 = AXIS2_PLACEMENT_3D ( 'NONE', #65, #94, #168 ) ;
#43 = PERSON_AND_ORGANIZATION ( #74, #118 ) ;
#44 = SECURITY_CLASSIFICATION_LEVEL ( 'unclassified' ) ;
#45 = DATE_TIME_ROLE ( 'classification_date' ) ;
#46 = AXIS2_PLACEMENT_3D ( 'NONE', #48, #87, #97 ) ;
#47 = ORIENTED_EDGE ( 'NONE', *, *, #4, .T. ) ;
#48 = CARTESIAN_POINT ( 'NONE',  ( 0.000000000000000000, 0.000000000000000000, 3.000000000000000000 ) ) ;
#49 = CONICAL_SURFACE ( 'NONE', #42, 5.500000000000000888, 0.7853981633974504994 ) ;
#50 = AXIS2_PLACEMENT_3D ( 'NONE', #70, #124, #95 ) ;
#51 = SECURITY_CLASSIFICATION ( '', '', #44 ) ;
#52 = DATE_TIME_ROLE ( 'creation_date' ) ;
#53 = PERSON_AND_ORGANIZATION ( #74, #118 ) ;
#54 = COORDINATED_UNIVERSAL_TIME_OFFSET ( 8, 0, .AHEAD. ) ;
#55 = CARTESIAN_POINT ( 'NONE',  ( 0.000000000000000000, 0.000000000000000000, 0.000000000000000000 ) ) ;
#56 = SHAPE_DEFINITION_REPRESENTATION ( #158, #101 ) ;
#57 = FACE_OUTER_BOUND ( 'NONE', #148, .T. ) ;
#58 = EDGE_CURVE ( 'NONE', #64, #64, #33, .T. ) ;
#59 = CYLINDRICAL_SURFACE ( 'NONE', #46, 5.500000000000000888 ) ;
#60 = CIRCLE ( 'NONE', #126, 5.299999999999997158 ) ;
#61 =( NAMED_UNIT ( * ) PLANE_ANGLE_UNIT ( ) SI_UNIT ( $, .RADIAN. ) );
#62 = PERSON_AND_ORGANIZATION_ROLE ( 'design_owner' ) ;
#63 = FACE_BOUND ( 'NONE', #69, .T. ) ;
#64 = VERTEX_POINT ( 'NONE', #167 ) ;
#65 = CARTESIAN_POINT ( 'NONE',  ( 0.000000000000000000, 0.000000000000000000, 0.1999999999999987899 ) ) ;
#66 = PRODUCT ( 'Áã¼þ2', 'Áã¼þ2', '', ( #12 ) ) ;
#67 = APPLICATION_PROTOCOL_DEFINITION ( 'international standard', 'config_control_design', 1994, #84 ) ;
#68 = CC_DESIGN_DATE_AND_TIME_ASSIGNMENT ( #154, #45, ( #51 ) ) ;
#69 = EDGE_LOOP ( 'NONE', ( #135 ) ) ;
#70 = CARTESIAN_POINT ( 'NONE',  ( 0.000000000000000000, 0.000000000000000000, 3.000000000000000000 ) ) ;
#71 = APPROVAL ( #14, 'Î´Ö¸¶¨' ) ;
#72 = ORIENTED_EDGE ( 'NONE', *, *, #22, .T. ) ;
#73 = CARTESIAN_POINT ( 'NONE',  ( 0.000000000000000000, 0.000000000000000000, 3.000000000000000000 ) ) ;
#74 = PERSON ( 'Î´Ö¸¶¨', 'Î´Ö¸¶¨', 'Î´Ö¸¶¨', ('Î´Ö¸¶¨'), ('Î´Ö¸¶¨'), ('Î´Ö¸¶¨') ) ;
#75 = CC_DESIGN_DATE_AND_TIME_ASSIGNMENT ( #31, #52, ( #149 ) ) ;
#76 =( LENGTH_UNIT ( ) NAMED_UNIT ( * ) SI_UNIT ( .MILLI., .METRE. ) );
#77 = DIRECTION ( 'NONE',  ( 0.000000000000000000, 0.000000000000000000, 1.000000000000000000 ) ) ;
#78 =( NAMED_UNIT ( * ) SI_UNIT ( $, .STERADIAN. ) SOLID_ANGLE_UNIT ( ) );
#79 = APPLICATION_PROTOCOL_DEFINITION ( 'international standard', 'config_control_design', 1994, #41 ) ;
#80 = AXIS2_PLACEMENT_3D ( 'NONE', #73, #128, #25 ) ;
#81 = APPROVAL_ROLE ( '' ) ;
#82 = CALENDAR_DATE ( 2025, 24, 12 ) ;
#83 = APPROVAL_PERSON_ORGANIZATION ( #103, #71, #32 ) ;
#84 = APPLICATION_CONTEXT ( 'configuration controlled 3d designs of mechanical parts and assemblies' ) ;
#85 = EDGE_CURVE ( 'NONE', #156, #156, #60, .T. ) ;
#86 = LOCAL_TIME ( 9, 29, 20.00000000000000000, #54 ) ;
#87 = DIRECTION ( 'NONE',  ( -0.000000000000000000, -0.000000000000000000, -1.000000000000000000 ) ) ;
#88 = DATE_AND_TIME ( #109, #86 ) ;
#89 = MANIFOLD_SOLID_BREP ( 'µ¹½Ç1', #134 ) ;
#90 = FACE_OUTER_BOUND ( 'NONE', #122, .T. ) ;
#91 = DIRECTION ( 'NONE',  ( 1.000000000000000000, 0.000000000000000000, -0.000000000000000000 ) ) ;
#92 = CC_DESIGN_PERSON_AND_ORGANIZATION_ASSIGNMENT ( #119, #171, ( #149 ) ) ;
#93 = DIRECTION ( 'NONE',  ( 1.000000000000000000, 0.000000000000000000, 0.000000000000000000 ) ) ;
#94 = DIRECTION ( 'NONE',  ( -0.000000000000000000, -0.000000000000000000, 1.000000000000000000 ) ) ;
#95 = DIRECTION ( 'NONE',  ( 1.000000000000000000, 0.000000000000000000, -0.000000000000000000 ) ) ;
#96 = EDGE_LOOP ( 'NONE', ( #111 ) ) ;
#97 = DIRECTION ( 'NONE',  ( -1.000000000000000000, 0.000000000000000000, 0.000000000000000000 ) ) ;
#98 = APPROVAL_PERSON_ORGANIZATION ( #16, #136, #81 ) ;
#99 = CARTESIAN_POINT ( 'NONE',  ( 0.000000000000000000, 0.000000000000000000, 0.000000000000000000 ) ) ;
#100 = VERTEX_POINT ( 'NONE', #115 ) ;
#101 = ADVANCED_BREP_SHAPE_REPRESENTATION ( 'Áã¼þ2', ( #89, #166 ), #174 ) ;
#102 = CC_DESIGN_APPROVAL ( #108, ( #51 ) ) ;
#103 = PERSON_AND_ORGANIZATION ( #74, #118 ) ;
#104 = CALENDAR_DATE ( 2025, 24, 12 ) ;
#105 = PRODUCT_RELATED_PRODUCT_CATEGORY ( 'detail', '', ( #66 ) ) ;
#106 = PERSON_AND_ORGANIZATION_ROLE ( 'design_supplier' ) ;
#107 = DIRECTION ( 'NONE',  ( 1.000000000000000000, 0.000000000000000000, 0.000000000000000000 ) ) ;
#108 = APPROVAL ( #175, 'Î´Ö¸¶¨' ) ;
#109 = CALENDAR_DATE ( 2025, 24, 12 ) ;
#110 = DESIGN_CONTEXT ( 'detailed design', #84, 'design' ) ;
#111 = ORIENTED_EDGE ( 'NONE', *, *, #85, .F. ) ;
#112 = CARTESIAN_POINT ( 'NONE',  ( 0.000000000000000000, 0.000000000000000000, 0.1999999999999987899 ) ) ;
#113 = ORIENTED_EDGE ( 'NONE', *, *, #22, .F. ) ;
#114 = LOCAL_TIME ( 9, 29, 20.00000000000000000, #173 ) ;
#115 = CARTESIAN_POINT ( 'NONE',  ( 5.500000000000000888, 0.000000000000000000, 2.799999999999997158 ) ) ;
#116 = APPROVAL_STATUS ( 'not_yet_approved' ) ;
#117 = COORDINATED_UNIVERSAL_TIME_OFFSET ( 8, 0, .AHEAD. ) ;
#118 = ORGANIZATION ( 'Î´Ö¸¶¨', 'Î´Ö¸¶¨', '' ) ;
#119 = PERSON_AND_ORGANIZATION ( #74, #118 ) ;
#120 = PERSON_AND_ORGANIZATION_ROLE ( 'creator' ) ;
#121 = CONICAL_SURFACE ( 'NONE', #80, 5.299999999999997158, 0.7853981633974482790 ) ;
#122 = EDGE_LOOP ( 'NONE', ( #18 ) ) ;
#123 = PERSON_AND_ORGANIZATION ( #74, #118 ) ;
#124 = DIRECTION ( 'NONE',  ( 0.000000000000000000, 0.000000000000000000, 1.000000000000000000 ) ) ;
#125 = ORIENTED_EDGE ( 'NONE', *, *, #4, .F. ) ;
#126 = AXIS2_PLACEMENT_3D ( 'NONE', #127, #77, #8 ) ;
#127 = CARTESIAN_POINT ( 'NONE',  ( 0.000000000000000000, 0.000000000000000000, 3.000000000000000000 ) ) ;
#128 = DIRECTION ( 'NONE',  ( 0.000000000000000000, 0.000000000000000000, -1.000000000000000000 ) ) ;
#129 = CC_DESIGN_APPROVAL ( #71, ( #36 ) ) ;
#130 = DATE_AND_TIME ( #104, #17 ) ;
#131 = ADVANCED_FACE ( 'NONE', ( #141, #37 ), #121, .T. ) ;
#132 = LOCAL_TIME ( 9, 29, 20.00000000000000000, #13 ) ;
#133 = PERSON_AND_ORGANIZATION_ROLE ( 'classification_officer' ) ;
#134 = CLOSED_SHELL ( 'NONE', ( #27, #11, #30, #139, #131 ) ) ;
#135 = ORIENTED_EDGE ( 'NONE', *, *, #58, .F. ) ;
#136 = APPROVAL ( #116, 'Î´Ö¸¶¨' ) ;
#137 = APPROVAL_PERSON_ORGANIZATION ( #123, #108, #142 ) ;
#138 = EDGE_LOOP ( 'NONE', ( #125 ) ) ;
#139 = ADVANCED_FACE ( 'NONE', ( #63, #9 ), #49, .T. ) ;
#140 = EDGE_LOOP ( 'NONE', ( #47 ) ) ;
#141 = FACE_OUTER_BOUND ( 'NONE', #138, .T. ) ;
#142 = APPROVAL_ROLE ( '' ) ;
#143 = CARTESIAN_POINT ( 'NONE',  ( 5.299999999999997158, 0.000000000000000000, 3.000000000000000000 ) ) ;
#144 = CC_DESIGN_PERSON_AND_ORGANIZATION_ASSIGNMENT ( #26, #62, ( #66 ) ) ;
#145 = DATE_AND_TIME ( #82, #132 ) ;
#146 = CALENDAR_DATE ( 2025, 24, 12 ) ;
#147 = PERSON_AND_ORGANIZATION ( #74, #118 ) ;
#148 = EDGE_LOOP ( 'NONE', ( #21 ) ) ;
#149 = PRODUCT_DEFINITION ( 'Î´Öª', '', #36, #110 ) ;
#150 = AXIS2_PLACEMENT_3D ( 'NONE', #155, #40, #93 ) ;
#151 = DIRECTION ( 'NONE',  ( 1.000000000000000000, 0.000000000000000000, 0.000000000000000000 ) ) ;
#152 = CC_DESIGN_PERSON_AND_ORGANIZATION_ASSIGNMENT ( #147, #133, ( #51 ) ) ;
#153 = EDGE_LOOP ( 'NONE', ( #113 ) ) ;
#154 = DATE_AND_TIME ( #20, #114 ) ;
#155 = CARTESIAN_POINT ( 'NONE',  ( 0.000000000000000000, 0.000000000000000000, 0.000000000000000000 ) ) ;
#156 = VERTEX_POINT ( 'NONE', #143 ) ;
#157 = CC_DESIGN_APPROVAL ( #136, ( #149 ) ) ;
#158 = PRODUCT_DEFINITION_SHAPE ( 'NONE', 'NONE',  #149 ) ;
#159 = APPROVAL_DATE_TIME ( #145, #71 ) ;
#160 = APPROVAL_DATE_TIME ( #130, #136 ) ;
#161 = DIRECTION ( 'NONE',  ( -0.000000000000000000, -0.000000000000000000, 1.000000000000000000 ) ) ;
#162 = APPROVAL_DATE_TIME ( #88, #108 ) ;
#163 = AXIS2_PLACEMENT_3D ( 'NONE', #1, #34, #107 ) ;
#164 = PLANE ( 'NONE',  #15 ) ;
#165 = EDGE_LOOP ( 'NONE', ( #72 ) ) ;
#166 = AXIS2_PLACEMENT_3D ( 'NONE', #99, #38, #10 ) ;
#167 = CARTESIAN_POINT ( 'NONE',  ( 5.300000000000000711, 0.000000000000000000, 0.000000000000000000 ) ) ;
#168 = DIRECTION ( 'NONE',  ( 1.000000000000000000, 0.000000000000000000, 0.000000000000000000 ) ) ;
#169 = CIRCLE ( 'NONE', #24, 5.500000000000000888 ) ;
#170 = COORDINATED_UNIVERSAL_TIME_OFFSET ( 8, 0, .AHEAD. ) ;
#171 = PERSON_AND_ORGANIZATION_ROLE ( 'creator' ) ;
#172 = CC_DESIGN_PERSON_AND_ORGANIZATION_ASSIGNMENT ( #53, #120, ( #36 ) ) ;
#173 = COORDINATED_UNIVERSAL_TIME_OFFSET ( 8, 0, .AHEAD. ) ;
#174 =( GEOMETRIC_REPRESENTATION_CONTEXT ( 3 ) GLOBAL_UNCERTAINTY_ASSIGNED_CONTEXT ( ( #23 ) ) GLOBAL_UNIT_ASSIGNED_CONTEXT ( ( #76, #61, #78 ) ) REPRESENTATION_CONTEXT ( 'NONE', 'WORKASPACE' ) );
#175 = APPROVAL_STATUS ( 'not_yet_approved' ) ;
ENDSEC;
END-ISO-10303-21;
