ISO-10303-21;
HEADER;
FILE_DESCRIPTION (( 'STEP AP203' ),
    '1' );
FILE_NAME ('530221.step',
    '2025-08-20T01:34:47',
    ( 'Windows User' ),
    ( 'P R C' ),
    'SwSTEP 2.0',
    'SolidWorks 2020',
    '' );
FILE_SCHEMA (( 'CONFIG_CONTROL_DESIGN' ));
ENDSEC;

DATA;
#1 = DATE_AND_TIME ( #172, #291 ) ;
#2 = MECHANICAL_CONTEXT ( 'NONE', #22, 'mechanical' ) ;
#3 = DIRECTION ( 'NONE',  ( 0.000000000000000000, 0.000000000000000000, -1.000000000000000000 ) ) ;
#4 = APPROVAL_STATUS ( 'not_yet_approved' ) ;
#5 = CARTESIAN_POINT ( 'NONE',  ( 0.000000000000000000, 0.000000000000000000, -13.64500000000000490 ) ) ;
#6 = AXIS2_PLACEMENT_3D ( 'NONE', #118, #282, #41 ) ;
#7 = ORIENTED_EDGE ( 'NONE', *, *, #164, .T. ) ;
#8 = ORIENTED_EDGE ( 'NONE', *, *, #48, .F. ) ;
#9 = EDGE_LOOP ( 'NONE', ( #305 ) ) ;
#10 = EDGE_LOOP ( 'NONE', ( #249 ) ) ;
#11 = EDGE_LOOP ( 'NONE', ( #13 ) ) ;
#12 = APPROVAL_PERSON_ORGANIZATION ( #75, #189, #286 ) ;
#13 = ORIENTED_EDGE ( 'NONE', *, *, #48, .T. ) ;
#14 = DIRECTION ( 'NONE',  ( 0.000000000000000000, 0.000000000000000000, 1.000000000000000000 ) ) ;
#15 = CARTESIAN_POINT ( 'NONE',  ( 0.000000000000000000, 0.000000000000000000, 0.000000000000000000 ) ) ;
#16 = DIRECTION ( 'NONE',  ( 0.000000000000000000, 1.000000000000000000, 0.000000000000000000 ) ) ;
#17 = CARTESIAN_POINT ( 'NONE',  ( -19.05000000000000071, 0.000000000000000000, 4.665904304751416087E-15 ) ) ;
#18 = DIRECTION ( 'NONE',  ( 0.000000000000000000, 0.000000000000000000, 1.000000000000000000 ) ) ;
#19 = CC_DESIGN_DATE_AND_TIME_ASSIGNMENT ( #1, #122, ( #77 ) ) ;
#20 = AXIS2_PLACEMENT_3D ( 'NONE', #252, #84, #176 ) ;
#21 = ADVANCED_FACE ( 'NONE', ( #55, #149 ), #188, .T. ) ;
#22 = APPLICATION_CONTEXT ( 'configuration controlled 3d designs of mechanical parts and assemblies' ) ;
#23 = PERSON_AND_ORGANIZATION ( #276, #109 ) ;
#24 = APPLICATION_PROTOCOL_DEFINITION ( 'international standard', 'config_control_design', 1994, #22 ) ;
#25 = PERSON_AND_ORGANIZATION_ROLE ( 'classification_officer' ) ;
#26 = DATE_AND_TIME ( #57, #67 ) ;
#27 = EDGE_LOOP ( 'NONE', ( #134 ) ) ;
#28 = CC_DESIGN_PERSON_AND_ORGANIZATION_ASSIGNMENT ( #105, #101, ( #121 ) ) ;
#29 = EDGE_LOOP ( 'NONE', ( #197 ) ) ;
#30 = PERSON_AND_ORGANIZATION ( #276, #109 ) ;
#31 = PERSON_AND_ORGANIZATION_ROLE ( 'design_owner' ) ;
#32 = EDGE_CURVE ( 'NONE', #69, #69, #142, .T. ) ;
#33 = AXIS2_PLACEMENT_3D ( 'NONE', #208, #16, #156 ) ;
#34 = ORIENTED_EDGE ( 'NONE', *, *, #201, .F. ) ;
#35 = ORIENTED_EDGE ( 'NONE', *, *, #93, .T. ) ;
#36 = FACE_OUTER_BOUND ( 'NONE', #127, .T. ) ;
#37 = ORIENTED_EDGE ( 'NONE', *, *, #32, .T. ) ;
#38 = EDGE_LOOP ( 'NONE', ( #207 ) ) ;
#39 = AXIS2_PLACEMENT_3D ( 'NONE', #17, #159, #141 ) ;
#40 = DIRECTION ( 'NONE',  ( 0.000000000000000000, -1.000000000000000000, 0.000000000000000000 ) ) ;
#41 = DIRECTION ( 'NONE',  ( 0.000000000000000000, 0.000000000000000000, -1.000000000000000000 ) ) ;
#42 = DIRECTION ( 'NONE',  ( 0.000000000000000000, 1.000000000000000000, 0.000000000000000000 ) ) ;
#43 = DIRECTION ( 'NONE',  ( 0.000000000000000000, 0.000000000000000000, 1.000000000000000000 ) ) ;
#44 = CIRCLE ( 'NONE', #86, 0.6000000000000001998 ) ;
#45 = APPLICATION_CONTEXT ( 'configuration controlled 3d designs of mechanical parts and assemblies' ) ;
#46 = FACE_OUTER_BOUND ( 'NONE', #11, .T. ) ;
#47 = CC_DESIGN_PERSON_AND_ORGANIZATION_ASSIGNMENT ( #100, #147, ( #144 ) ) ;
#48 = EDGE_CURVE ( 'NONE', #160, #160, #116, .T. ) ;
#49 = AXIS2_PLACEMENT_3D ( 'NONE', #138, #212, #112 ) ;
#50 = DATE_AND_TIME ( #245, #264 ) ;
#51 = CARTESIAN_POINT ( 'NONE',  ( 0.000000000000000000, 0.000000000000000000, 0.000000000000000000 ) ) ;
#52 = ORIENTED_EDGE ( 'NONE', *, *, #56, .T. ) ;
#53 = APPROVAL_DATE_TIME ( #165, #288 ) ;
#54 = PERSON_AND_ORGANIZATION ( #276, #109 ) ;
#55 = FACE_BOUND ( 'NONE', #175, .T. ) ;
#56 = EDGE_CURVE ( 'NONE', #261, #261, #316, .T. ) ;
#57 = CALENDAR_DATE ( 2025, 20, 8 ) ;
#58 = EDGE_LOOP ( 'NONE', ( #275 ) ) ;
#59 = AXIS2_PLACEMENT_3D ( 'NONE', #209, #311, #92 ) ;
#60 = CONICAL_SURFACE ( 'NONE', #133, 25.84500000000000242, 0.7853981633974529419 ) ;
#61 = DIRECTION ( 'NONE',  ( 0.000000000000000000, 6.712027378513472489E-17, 1.000000000000000000 ) ) ;
#62 = EDGE_LOOP ( 'NONE', ( #37 ) ) ;
#63 = CARTESIAN_POINT ( 'NONE',  ( 0.000000000000000000, 0.000000000000000000, 0.000000000000000000 ) ) ;
#64 = EDGE_LOOP ( 'NONE', ( #247 ) ) ;
#65 = AXIS2_PLACEMENT_3D ( 'NONE', #181, #154, #227 ) ;
#66 = DIRECTION ( 'NONE',  ( 0.000000000000000000, 0.000000000000000000, 1.000000000000000000 ) ) ;
#67 = LOCAL_TIME ( 9, 34, 47.00000000000000000, #145 ) ;
#68 = FACE_BOUND ( 'NONE', #130, .T. ) ;
#69 = VERTEX_POINT ( 'NONE', #137 ) ;
#70 = DIRECTION ( 'NONE',  ( -0.000000000000000000, -1.000000000000000000, -0.000000000000000000 ) ) ;
#71 = AXIS2_PLACEMENT_3D ( 'NONE', #157, #236, #281 ) ;
#72 = AXIS2_PLACEMENT_3D ( 'NONE', #119, #211, #66 ) ;
#73 = CARTESIAN_POINT ( 'NONE',  ( 0.000000000000000000, 2.168404344971008868E-16, 25.34500000000000242 ) ) ;
#74 = CARTESIAN_POINT ( 'NONE',  ( 0.000000000000000000, 4.500000000000009770, -25.84499999999999886 ) ) ;
#75 = PERSON_AND_ORGANIZATION ( #276, #109 ) ;
#76 = APPROVAL ( #4, 'Î´Ö¸¶¨' ) ;
#77 = SECURITY_CLASSIFICATION ( '', '', #263 ) ;
#78 = AXIS2_PLACEMENT_3D ( 'NONE', #309, #184, #43 ) ;
#79 = DATE_AND_TIME ( #294, #215 ) ;
#80 = ADVANCED_FACE ( 'NONE', ( #106, #202 ), #108, .F. ) ;
#81 = CARTESIAN_POINT ( 'NONE',  ( 0.000000000000000000, 4.500000000000007105, 0.000000000000000000 ) ) ;
#82 = COORDINATED_UNIVERSAL_TIME_OFFSET ( 8, 0, .AHEAD. ) ;
#83 = CARTESIAN_POINT ( 'NONE',  ( 0.000000000000000000, 5.000000000000000888, 13.64499999999999424 ) ) ;
#84 = DIRECTION ( 'NONE',  ( -0.000000000000000000, 1.000000000000000000, -0.000000000000000000 ) ) ;
#85 = DIRECTION ( 'NONE',  ( 0.000000000000000000, 0.000000000000000000, -1.000000000000000000 ) ) ;
#86 = AXIS2_PLACEMENT_3D ( 'NONE', #260, #70, #89 ) ;
#87 = EDGE_LOOP ( 'NONE', ( #229 ) ) ;
#88 = CARTESIAN_POINT ( 'NONE',  ( 0.000000000000000000, 4.500000000000004441, 0.000000000000000000 ) ) ;
#89 = DIRECTION ( 'NONE',  ( 0.000000000000000000, 0.000000000000000000, 1.000000000000000000 ) ) ;
#90 = CC_DESIGN_DATE_AND_TIME_ASSIGNMENT ( #79, #169, ( #121 ) ) ;
#91 = AXIS2_PLACEMENT_3D ( 'NONE', #96, #234, #14 ) ;
#92 = DIRECTION ( 'NONE',  ( 0.000000000000000000, 4.948811742041100754E-17, -1.000000000000000000 ) ) ;
#93 = EDGE_CURVE ( 'NONE', #217, #217, #115, .T. ) ;
#94 = DIRECTION ( 'NONE',  ( 0.000000000000000000, -0.000000000000000000, 1.000000000000000000 ) ) ;
#95 = FACE_OUTER_BOUND ( 'NONE', #10, .T. ) ;
#96 = CARTESIAN_POINT ( 'NONE',  ( 0.000000000000000000, 5.000000000000000888, 0.000000000000000000 ) ) ;
#97 = MANIFOLD_SOLID_BREP ( 'NONE', #262 ) ;
#98 = DIRECTION ( 'NONE',  ( 0.000000000000000000, 0.000000000000000000, 1.000000000000000000 ) ) ;
#99 = LOCAL_TIME ( 9, 34, 47.00000000000000000, #298 ) ;
#100 = PERSON_AND_ORGANIZATION ( #276, #109 ) ;
#101 = PERSON_AND_ORGANIZATION_ROLE ( 'creator' ) ;
#102 = ADVANCED_FACE ( 'NONE', ( #170, #206 ), #306, .T. ) ;
#103 = CARTESIAN_POINT ( 'NONE',  ( 0.000000000000000000, 5.000000000000001776, 0.000000000000000000 ) ) ;
#104 = AXIS2_PLACEMENT_3D ( 'NONE', #237, #42, #94 ) ;
#105 = PERSON_AND_ORGANIZATION ( #276, #109 ) ;
#106 = FACE_OUTER_BOUND ( 'NONE', #221, .T. ) ;
#107 = FACE_OUTER_BOUND ( 'NONE', #302, .T. ) ;
#108 = CYLINDRICAL_SURFACE ( 'NONE', #177, 13.14499999999999957 ) ;
#109 = ORGANIZATION ( 'Î´Ö¸¶¨', 'Î´Ö¸¶¨', '' ) ;
#110 = ORIENTED_EDGE ( 'NONE', *, *, #201, .T. ) ;
#111 = DIRECTION ( 'NONE',  ( 0.000000000000000000, 0.000000000000000000, -1.000000000000000000 ) ) ;
#112 = DIRECTION ( 'NONE',  ( 0.000000000000000000, 0.000000000000000000, 1.000000000000000000 ) ) ;
#113 = ADVANCED_FACE ( 'NONE', ( #271, #203 ), #198, .F. ) ;
#114 = DIRECTION ( 'NONE',  ( 0.000000000000000000, 1.000000000000000000, 0.000000000000000000 ) ) ;
#115 = CIRCLE ( 'NONE', #235, 0.6000000000000001998 ) ;
#116 = CIRCLE ( 'NONE', #20, 25.34500000000002728 ) ;
#117 = CARTESIAN_POINT ( 'NONE',  ( 0.000000000000000000, 0.4999999999999961142, 0.000000000000000000 ) ) ;
#118 = CARTESIAN_POINT ( 'NONE',  ( 0.000000000000000000, 4.500000000000009770, 0.000000000000000000 ) ) ;
#119 = CARTESIAN_POINT ( 'NONE',  ( 19.05000000000000071, 5.000000000000000000, 0.000000000000000000 ) ) ;
#120 = CARTESIAN_POINT ( 'NONE',  ( 0.000000000000000000, 0.5000000000000079936, -13.14499999999999957 ) ) ;
#121 = PRODUCT_DEFINITION ( 'Î´Öª', '', #144, #214 ) ;
#122 = DATE_TIME_ROLE ( 'classification_date' ) ;
#123 = APPROVAL_DATE_TIME ( #26, #189 ) ;
#124 = DIRECTION ( 'NONE',  ( -0.000000000000000000, -1.000000000000000000, -0.000000000000000000 ) ) ;
#125 = PERSON_AND_ORGANIZATION ( #276, #109 ) ;
#126 = VERTEX_POINT ( 'NONE', #74 ) ;
#127 = EDGE_LOOP ( 'NONE', ( #34 ) ) ;
#128 = VERTEX_POINT ( 'NONE', #268 ) ;
#129 = DIRECTION ( 'NONE',  ( 0.000000000000000000, -1.000000000000000000, 0.000000000000000000 ) ) ;
#130 = EDGE_LOOP ( 'NONE', ( #146 ) ) ;
#131 = ORIENTED_EDGE ( 'NONE', *, *, #164, .F. ) ;
#132 = EDGE_LOOP ( 'NONE', ( #230 ) ) ;
#133 = AXIS2_PLACEMENT_3D ( 'NONE', #117, #278, #18 ) ;
#134 = ORIENTED_EDGE ( 'NONE', *, *, #242, .T. ) ;
#135 = FACE_OUTER_BOUND ( 'NONE', #152, .T. ) ;
#136 = ADVANCED_FACE ( 'NONE', ( #107, #36 ), #140, .F. ) ;
#137 = CARTESIAN_POINT ( 'NONE',  ( 0.000000000000000000, 4.500000000000004441, -13.14499999999999957 ) ) ;
#138 = CARTESIAN_POINT ( 'NONE',  ( 19.05000000000000071, 0.000000000000000000, 0.000000000000000000 ) ) ;
#139 = AXIS2_PLACEMENT_3D ( 'NONE', #155, #204, #61 ) ;
#140 = CYLINDRICAL_SURFACE ( 'NONE', #39, 0.6000000000000001998 ) ;
#141 = DIRECTION ( 'NONE',  ( 0.000000000000000000, 0.000000000000000000, 1.000000000000000000 ) ) ;
#142 = CIRCLE ( 'NONE', #248, 13.14499999999999957 ) ;
#143 = EDGE_CURVE ( 'NONE', #148, #148, #153, .T. ) ;
#144 = PRODUCT_DEFINITION_FORMATION_WITH_SPECIFIED_SOURCE ( 'ÈÎºÎ', '', #253, .NOT_KNOWN. ) ;
#145 = COORDINATED_UNIVERSAL_TIME_OFFSET ( 8, 0, .AHEAD. ) ;
#146 = ORIENTED_EDGE ( 'NONE', *, *, #279, .T. ) ;
#147 = PERSON_AND_ORGANIZATION_ROLE ( 'design_supplier' ) ;
#148 = VERTEX_POINT ( 'NONE', #120 ) ;
#149 = FACE_OUTER_BOUND ( 'NONE', #38, .T. ) ;
#150 = VERTEX_POINT ( 'NONE', #5 ) ;
#151 = UNCERTAINTY_MEASURE_WITH_UNIT (LENGTH_MEASURE( 1.000000000000000082E-05 ), #266, 'distance_accuracy_value', 'NONE');
#152 = EDGE_LOOP ( 'NONE', ( #241 ) ) ;
#153 = CIRCLE ( 'NONE', #59, 13.14499999999999957 ) ;
#154 = DIRECTION ( 'NONE',  ( -0.000000000000000000, -1.000000000000000000, -0.000000000000000000 ) ) ;
#155 = CARTESIAN_POINT ( 'NONE',  ( 0.000000000000000000, 0.4999999999999935052, 0.000000000000000000 ) ) ;
#156 = DIRECTION ( 'NONE',  ( 0.000000000000000000, 0.000000000000000000, 1.000000000000000000 ) ) ;
#157 = CARTESIAN_POINT ( 'NONE',  ( 0.000000000000000000, 0.000000000000000000, 0.000000000000000000 ) ) ;
#158 = EDGE_LOOP ( 'NONE', ( #179 ) ) ;
#159 = DIRECTION ( 'NONE',  ( 0.000000000000000000, 1.000000000000000000, 0.000000000000000000 ) ) ;
#160 = VERTEX_POINT ( 'NONE', #259 ) ;
#161 = FACE_BOUND ( 'NONE', #87, .T. ) ;
#162 = CARTESIAN_POINT ( 'NONE',  ( 19.05000000000000071, 5.000000000000000000, 0.6000000000000001998 ) ) ;
#163 = PRODUCT_RELATED_PRODUCT_CATEGORY ( 'detail', '', ( #253 ) ) ;
#164 = EDGE_CURVE ( 'NONE', #243, #243, #272, .T. ) ;
#165 = DATE_AND_TIME ( #199, #99 ) ;
#166 = VERTEX_POINT ( 'NONE', #83 ) ;
#167 = CARTESIAN_POINT ( 'NONE',  ( 19.05000000000000071, 0.000000000000000000, 0.6000000000000001998 ) ) ;
#168 = APPROVAL_PERSON_ORGANIZATION ( #23, #76, #192 ) ;
#169 = DATE_TIME_ROLE ( 'creation_date' ) ;
#170 = FACE_OUTER_BOUND ( 'NONE', #27, .T. ) ;
#171 = CC_DESIGN_PERSON_AND_ORGANIZATION_ASSIGNMENT ( #194, #31, ( #253 ) ) ;
#172 = CALENDAR_DATE ( 2025, 20, 8 ) ;
#173 =( NAMED_UNIT ( * ) PLANE_ANGLE_UNIT ( ) SI_UNIT ( $, .RADIAN. ) );
#174 = DIRECTION ( 'NONE',  ( 0.000000000000000000, 0.000000000000000000, 1.000000000000000000 ) ) ;
#175 = EDGE_LOOP ( 'NONE', ( #8 ) ) ;
#176 = DIRECTION ( 'NONE',  ( 0.000000000000000000, 0.000000000000000000, -1.000000000000000000 ) ) ;
#177 = AXIS2_PLACEMENT_3D ( 'NONE', #297, #224, #111 ) ;
#178 = APPROVAL_PERSON_ORGANIZATION ( #54, #288, #299 ) ;
#179 = ORIENTED_EDGE ( 'NONE', *, *, #257, .F. ) ;
#180 = ADVANCED_FACE ( 'NONE', ( #95, #185 ), #295, .F. ) ;
#181 = CARTESIAN_POINT ( 'NONE',  ( 0.000000000000000000, 5.000000000000000000, 0.000000000000000000 ) ) ;
#182 = FACE_OUTER_BOUND ( 'NONE', #274, .T. ) ;
#183 = CIRCLE ( 'NONE', #49, 0.6000000000000001998 ) ;
#184 = DIRECTION ( 'NONE',  ( -0.000000000000000000, 1.000000000000000000, 0.000000000000000000 ) ) ;
#185 = FACE_BOUND ( 'NONE', #29, .T. ) ;
#186 = FACE_BOUND ( 'NONE', #303, .T. ) ;
#187 =( GEOMETRIC_REPRESENTATION_CONTEXT ( 3 ) GLOBAL_UNCERTAINTY_ASSIGNED_CONTEXT ( ( #151 ) ) GLOBAL_UNIT_ASSIGNED_CONTEXT ( ( #266, #173, #287 ) ) REPRESENTATION_CONTEXT ( 'NONE', 'WORKASPACE' ) );
#188 = CONICAL_SURFACE ( 'NONE', #290, 25.84500000000000242, 0.7853981633974309595 ) ;
#189 = APPROVAL ( #240, 'Î´Ö¸¶¨' ) ;
#190 = CARTESIAN_POINT ( 'NONE',  ( 0.000000000000000000, 0.4999999999999952260, 25.84500000000000242 ) ) ;
#191 = AXIS2_PLACEMENT_3D ( 'NONE', #103, #250, #226 ) ;
#192 = APPROVAL_ROLE ( '' ) ;
#193 = SHAPE_DEFINITION_REPRESENTATION ( #310, #218 ) ;
#194 = PERSON_AND_ORGANIZATION ( #276, #109 ) ;
#195 = COORDINATED_UNIVERSAL_TIME_OFFSET ( 8, 0, .AHEAD. ) ;
#196 = CC_DESIGN_PERSON_AND_ORGANIZATION_ASSIGNMENT ( #30, #25, ( #77 ) ) ;
#197 = ORIENTED_EDGE ( 'NONE', *, *, #143, .F. ) ;
#198 = CONICAL_SURFACE ( 'NONE', #191, 13.64499999999999424, 0.7853981633974447263 ) ;
#199 = CALENDAR_DATE ( 2025, 20, 8 ) ;
#200 = APPROVAL_STATUS ( 'not_yet_approved' ) ;
#201 = EDGE_CURVE ( 'NONE', #128, #128, #44, .T. ) ;
#202 = FACE_OUTER_BOUND ( 'NONE', #9, .T. ) ;
#203 = FACE_BOUND ( 'NONE', #62, .T. ) ;
#204 = DIRECTION ( 'NONE',  ( -0.000000000000000000, -1.000000000000000000, -0.000000000000000000 ) ) ;
#205 = ORIENTED_EDGE ( 'NONE', *, *, #143, .T. ) ;
#206 = FACE_OUTER_BOUND ( 'NONE', #58, .T. ) ;
#207 = ORIENTED_EDGE ( 'NONE', *, *, #242, .F. ) ;
#208 = CARTESIAN_POINT ( 'NONE',  ( 19.05000000000000071, 0.000000000000000000, 0.000000000000000000 ) ) ;
#209 = CARTESIAN_POINT ( 'NONE',  ( 0.000000000000000000, 0.5000000000000073275, 0.000000000000000000 ) ) ;
#210 = CIRCLE ( 'NONE', #72, 0.6000000000000001998 ) ;
#211 = DIRECTION ( 'NONE',  ( -0.000000000000000000, -1.000000000000000000, -0.000000000000000000 ) ) ;
#212 = DIRECTION ( 'NONE',  ( -0.000000000000000000, -1.000000000000000000, -0.000000000000000000 ) ) ;
#213 = FACE_OUTER_BOUND ( 'NONE', #307, .T. ) ;
#214 = DESIGN_CONTEXT ( 'detailed design', #45, 'design' ) ;
#215 = LOCAL_TIME ( 9, 34, 47.00000000000000000, #195 ) ;
#216 = COORDINATED_UNIVERSAL_TIME_OFFSET ( 8, 0, .AHEAD. ) ;
#217 = VERTEX_POINT ( 'NONE', #219 ) ;
#218 = ADVANCED_BREP_SHAPE_REPRESENTATION ( '530221', ( #97, #285 ), #187 ) ;
#219 = CARTESIAN_POINT ( 'NONE',  ( -19.05000000000000071, 0.000000000000000000, 0.6000000000000048628 ) ) ;
#220 = CC_DESIGN_PERSON_AND_ORGANIZATION_ASSIGNMENT ( #125, #265, ( #144 ) ) ;
#221 = EDGE_LOOP ( 'NONE', ( #205 ) ) ;
#222 = VERTEX_POINT ( 'NONE', #167 ) ;
#223 = ADVANCED_FACE ( 'NONE', ( #258, #213, #283, #186 ), #233, .F. ) ;
#224 = DIRECTION ( 'NONE',  ( -0.000000000000000000, -1.000000000000000000, -0.000000000000000000 ) ) ;
#225 = CIRCLE ( 'NONE', #91, 13.64499999999999424 ) ;
#226 = DIRECTION ( 'NONE',  ( 0.000000000000000000, 0.000000000000000000, 1.000000000000000000 ) ) ;
#227 = DIRECTION ( 'NONE',  ( 0.000000000000000000, 0.000000000000000000, -1.000000000000000000 ) ) ;
#228 = ORIENTED_EDGE ( 'NONE', *, *, #232, .F. ) ;
#229 = ORIENTED_EDGE ( 'NONE', *, *, #317, .T. ) ;
#230 = ORIENTED_EDGE ( 'NONE', *, *, #279, .F. ) ;
#231 = DIRECTION ( 'NONE',  ( 0.000000000000000000, -0.000000000000000000, 1.000000000000000000 ) ) ;
#232 = EDGE_CURVE ( 'NONE', #150, #150, #255, .T. ) ;
#233 = PLANE ( 'NONE',  #284 ) ;
#234 = DIRECTION ( 'NONE',  ( 0.000000000000000000, -1.000000000000000000, -0.000000000000000000 ) ) ;
#235 = AXIS2_PLACEMENT_3D ( 'NONE', #273, #124, #174 ) ;
#236 = DIRECTION ( 'NONE',  ( 0.000000000000000000, -1.000000000000000000, 0.000000000000000000 ) ) ;
#237 = CARTESIAN_POINT ( 'NONE',  ( 0.000000000000000000, 5.000000000000000000, 0.000000000000000000 ) ) ;
#238 = ADVANCED_FACE ( 'NONE', ( #68, #46, #161, #254 ), #314, .T. ) ;
#239 = AXIS2_PLACEMENT_3D ( 'NONE', #63, #40, #256 ) ;
#240 = APPROVAL_STATUS ( 'not_yet_approved' ) ;
#241 = ORIENTED_EDGE ( 'NONE', *, *, #257, .T. ) ;
#242 = EDGE_CURVE ( 'NONE', #126, #126, #280, .T. ) ;
#243 = VERTEX_POINT ( 'NONE', #73 ) ;
#244 = ORIENTED_EDGE ( 'NONE', *, *, #93, .F. ) ;
#245 = CALENDAR_DATE ( 2025, 20, 8 ) ;
#246 = VERTEX_POINT ( 'NONE', #162 ) ;
#247 = ORIENTED_EDGE ( 'NONE', *, *, #317, .F. ) ;
#248 = AXIS2_PLACEMENT_3D ( 'NONE', #88, #269, #85 ) ;
#249 = ORIENTED_EDGE ( 'NONE', *, *, #232, .T. ) ;
#250 = DIRECTION ( 'NONE',  ( -0.000000000000000000, 1.000000000000000000, 0.000000000000000000 ) ) ;
#251 = EDGE_LOOP ( 'NONE', ( #228 ) ) ;
#252 = CARTESIAN_POINT ( 'NONE',  ( 0.000000000000000000, 5.000000000000000888, 0.000000000000000000 ) ) ;
#253 = PRODUCT ( '530221', '530221', '', ( #2 ) ) ;
#254 = FACE_BOUND ( 'NONE', #301, .T. ) ;
#255 = CIRCLE ( 'NONE', #239, 13.64500000000000490 ) ;
#256 = DIRECTION ( 'NONE',  ( 0.000000000000000000, 0.000000000000000000, -1.000000000000000000 ) ) ;
#257 = EDGE_CURVE ( 'NONE', #222, #222, #183, .T. ) ;
#258 = FACE_BOUND ( 'NONE', #251, .T. ) ;
#259 = CARTESIAN_POINT ( 'NONE',  ( 0.000000000000000000, 5.000000000000000888, -25.34500000000002728 ) ) ;
#260 = CARTESIAN_POINT ( 'NONE',  ( -19.05000000000000071, 5.000000000000000000, 4.665904304751416087E-15 ) ) ;
#261 = VERTEX_POINT ( 'NONE', #190 ) ;
#262 = CLOSED_SHELL ( 'NONE', ( #223, #180, #308, #289, #136, #80, #102, #238, #113, #21 ) ) ;
#263 = SECURITY_CLASSIFICATION_LEVEL ( 'unclassified' ) ;
#264 = LOCAL_TIME ( 9, 34, 47.00000000000000000, #216 ) ;
#265 = PERSON_AND_ORGANIZATION_ROLE ( 'creator' ) ;
#266 =( LENGTH_UNIT ( ) NAMED_UNIT ( * ) SI_UNIT ( .MILLI., .METRE. ) );
#267 = CC_DESIGN_APPROVAL ( #76, ( #77 ) ) ;
#268 = CARTESIAN_POINT ( 'NONE',  ( -19.05000000000000071, 5.000000000000000000, 0.6000000000000048628 ) ) ;
#269 = DIRECTION ( 'NONE',  ( -0.000000000000000000, -1.000000000000000000, -0.000000000000000000 ) ) ;
#270 = DIRECTION ( 'NONE',  ( 1.000000000000000000, 0.000000000000000000, 0.000000000000000000 ) ) ;
#271 = FACE_OUTER_BOUND ( 'NONE', #132, .T. ) ;
#272 = CIRCLE ( 'NONE', #78, 25.34500000000000242 ) ;
#273 = CARTESIAN_POINT ( 'NONE',  ( -19.05000000000000071, 0.000000000000000000, 4.665904304751416087E-15 ) ) ;
#274 = EDGE_LOOP ( 'NONE', ( #52 ) ) ;
#275 = ORIENTED_EDGE ( 'NONE', *, *, #56, .F. ) ;
#276 = PERSON ( 'Î´Ö¸¶¨', 'Î´Ö¸¶¨', 'Î´Ö¸¶¨', ('Î´Ö¸¶¨'), ('Î´Ö¸¶¨'), ('Î´Ö¸¶¨') ) ;
#277 = CYLINDRICAL_SURFACE ( 'NONE', #33, 0.6000000000000001998 ) ;
#278 = DIRECTION ( 'NONE',  ( -0.000000000000000000, 1.000000000000000000, 0.000000000000000000 ) ) ;
#279 = EDGE_CURVE ( 'NONE', #166, #166, #225, .T. ) ;
#280 = CIRCLE ( 'NONE', #6, 25.84499999999999886 ) ;
#281 = DIRECTION ( 'NONE',  ( 0.000000000000000000, 0.000000000000000000, -1.000000000000000000 ) ) ;
#282 = DIRECTION ( 'NONE',  ( -0.000000000000000000, -1.000000000000000000, -0.000000000000000000 ) ) ;
#283 = FACE_BOUND ( 'NONE', #158, .T. ) ;
#284 = AXIS2_PLACEMENT_3D ( 'NONE', #15, #114, #231 ) ;
#285 = AXIS2_PLACEMENT_3D ( 'NONE', #51, #98, #270 ) ;
#286 = APPROVAL_ROLE ( '' ) ;
#287 =( NAMED_UNIT ( * ) SI_UNIT ( $, .STERADIAN. ) SOLID_ANGLE_UNIT ( ) );
#288 = APPROVAL ( #200, 'Î´Ö¸¶¨' ) ;
#289 = ADVANCED_FACE ( 'NONE', ( #135, #313 ), #277, .F. ) ;
#290 = AXIS2_PLACEMENT_3D ( 'NONE', #81, #129, #3 ) ;
#291 = LOCAL_TIME ( 9, 34, 47.00000000000000000, #82 ) ;
#292 = APPROVAL_DATE_TIME ( #50, #76 ) ;
#293 = APPLICATION_PROTOCOL_DEFINITION ( 'international standard', 'config_control_design', 1994, #45 ) ;
#294 = CALENDAR_DATE ( 2025, 20, 8 ) ;
#295 = CONICAL_SURFACE ( 'NONE', #71, 13.64500000000000490, 0.7853981633974442822 ) ;
#296 = CC_DESIGN_APPROVAL ( #288, ( #144 ) ) ;
#297 = CARTESIAN_POINT ( 'NONE',  ( 0.000000000000000000, 5.000000000000000000, 0.000000000000000000 ) ) ;
#298 = COORDINATED_UNIVERSAL_TIME_OFFSET ( 8, 0, .AHEAD. ) ;
#299 = APPROVAL_ROLE ( '' ) ;
#300 = EDGE_LOOP ( 'NONE', ( #7 ) ) ;
#301 = EDGE_LOOP ( 'NONE', ( #110 ) ) ;
#302 = EDGE_LOOP ( 'NONE', ( #35 ) ) ;
#303 = EDGE_LOOP ( 'NONE', ( #244 ) ) ;
#304 = CC_DESIGN_SECURITY_CLASSIFICATION ( #77, ( #144 ) ) ;
#305 = ORIENTED_EDGE ( 'NONE', *, *, #32, .F. ) ;
#306 = CYLINDRICAL_SURFACE ( 'NONE', #65, 25.84499999999999886 ) ;
#307 = EDGE_LOOP ( 'NONE', ( #131 ) ) ;
#308 = ADVANCED_FACE ( 'NONE', ( #312, #182 ), #60, .T. ) ;
#309 = CARTESIAN_POINT ( 'NONE',  ( 0.000000000000000000, 2.168404344971008868E-16, 0.000000000000000000 ) ) ;
#310 = PRODUCT_DEFINITION_SHAPE ( 'NONE', 'NONE',  #121 ) ;
#311 = DIRECTION ( 'NONE',  ( -0.000000000000000000, -1.000000000000000000, -0.000000000000000000 ) ) ;
#312 = FACE_BOUND ( 'NONE', #300, .T. ) ;
#313 = FACE_OUTER_BOUND ( 'NONE', #64, .T. ) ;
#314 = PLANE ( 'NONE',  #104 ) ;
#315 = CC_DESIGN_APPROVAL ( #189, ( #121 ) ) ;
#316 = CIRCLE ( 'NONE', #139, 25.84500000000000242 ) ;
#317 = EDGE_CURVE ( 'NONE', #246, #246, #210, .T. ) ;
ENDSEC;
END-ISO-10303-21;
