ISO-10303-21;
HEADER;
FILE_DESCRIPTION (( 'STEP AP203' ),
    '1' );
FILE_NAME ('900001.STEP',
    '2025-10-14T06:24:08',
    ( 'Windows User' ),
    ( 'P R C' ),
    'SwSTEP 2.0',
    'SolidWorks 2020',
    '' );
FILE_SCHEMA (( 'CONFIG_CONTROL_DESIGN' ));
ENDSEC;

DATA;
#1 = LINE ( 'NONE', #198, #206 ) ;
#2 = CARTESIAN_POINT ( 'NONE',  ( -12.50000000000000355, 12.50000000000000000, 2.299999999999999822 ) ) ;
#3 =( NAMED_UNIT ( * ) SI_UNIT ( $, .STERADIAN. ) SOLID_ANGLE_UNIT ( ) );
#4 = ORGANIZATION ( 'Î´Ö¸¶¨', 'Î´Ö¸¶¨', '' ) ;
#5 = DIRECTION ( 'NONE',  ( -0.000000000000000000, -0.000000000000000000, -1.000000000000000000 ) ) ;
#6 = APPROVAL_DATE_TIME ( #227, #140 ) ;
#7 = ORIENTED_EDGE ( 'NONE', *, *, #125, .T. ) ;
#8 = APPLICATION_CONTEXT ( 'configuration controlled 3d designs of mechanical parts and assemblies' ) ;
#9 = DATE_TIME_ROLE ( 'creation_date' ) ;
#10 = ADVANCED_FACE ( 'NONE', ( #37 ), #82, .F. ) ;
#11 = PERSON_AND_ORGANIZATION ( #78, #4 ) ;
#12 = ADVANCED_FACE ( 'NONE', ( #55 ), #133, .F. ) ;
#13 = ORIENTED_EDGE ( 'NONE', *, *, #157, .F. ) ;
#14 = ORIENTED_EDGE ( 'NONE', *, *, #208, .F. ) ;
#15 = ADVANCED_FACE ( 'NONE', ( #114 ), #85, .F. ) ;
#16 = ORIENTED_EDGE ( 'NONE', *, *, #226, .T. ) ;
#17 = FACE_OUTER_BOUND ( 'NONE', #211, .T. ) ;
#18 = PRODUCT ( '900001', '900001', '', ( #77 ) ) ;
#19 = EDGE_LOOP ( 'NONE', ( #191, #100, #13, #177 ) ) ;
#20 = DIRECTION ( 'NONE',  ( 1.000000000000000000, 0.000000000000000000, 0.000000000000000000 ) ) ;
#21 = CARTESIAN_POINT ( 'NONE',  ( -12.50000000000000000, -12.50000000000000000, 2.299999999999999822 ) ) ;
#22 = AXIS2_PLACEMENT_3D ( 'NONE', #40, #41, #72 ) ;
#23 =( LENGTH_UNIT ( ) NAMED_UNIT ( * ) SI_UNIT ( .MILLI., .METRE. ) );
#24 = CC_DESIGN_PERSON_AND_ORGANIZATION_ASSIGNMENT ( #44, #165, ( #201 ) ) ;
#25 = CARTESIAN_POINT ( 'NONE',  ( -12.50000000000000000, -12.50000000000000000, 2.299999999999999822 ) ) ;
#26 = APPLICATION_PROTOCOL_DEFINITION ( 'international standard', 'config_control_design', 1994, #8 ) ;
#27 = APPROVAL_PERSON_ORGANIZATION ( #11, #140, #166 ) ;
#28 = APPROVAL_STATUS ( 'not_yet_approved' ) ;
#29 = CALENDAR_DATE ( 2025, 14, 10 ) ;
#30 = COORDINATED_UNIVERSAL_TIME_OFFSET ( 8, 0, .AHEAD. ) ;
#31 = PERSON_AND_ORGANIZATION_ROLE ( 'design_owner' ) ;
#32 = EDGE_CURVE ( 'NONE', #68, #171, #192, .T. ) ;
#33 = PERSON_AND_ORGANIZATION ( #78, #4 ) ;
#34 = ORIENTED_EDGE ( 'NONE', *, *, #32, .F. ) ;
#35 = CARTESIAN_POINT ( 'NONE',  ( -12.50000000000000355, 12.50000000000000000, 2.299999999999999822 ) ) ;
#36 = EDGE_LOOP ( 'NONE', ( #116, #34, #14, #67 ) ) ;
#37 = FACE_OUTER_BOUND ( 'NONE', #36, .T. ) ;
#38 = EDGE_LOOP ( 'NONE', ( #172, #173, #217, #80 ) ) ;
#39 = DIRECTION ( 'NONE',  ( -1.000000000000000000, -0.000000000000000000, -0.000000000000000000 ) ) ;
#40 = CARTESIAN_POINT ( 'NONE',  ( -12.50000000000000355, 12.50000000000000000, 2.299999999999999822 ) ) ;
#41 = DIRECTION ( 'NONE',  ( 0.000000000000000000, -1.000000000000000000, 0.000000000000000000 ) ) ;
#42 = CARTESIAN_POINT ( 'NONE',  ( -12.50000000000000355, 12.50000000000000000, 0.000000000000000000 ) ) ;
#43 = FACE_OUTER_BOUND ( 'NONE', #19, .T. ) ;
#44 = PERSON_AND_ORGANIZATION ( #78, #4 ) ;
#45 = VECTOR ( 'NONE', #57, 1000.000000000000000 ) ;
#46 = COORDINATED_UNIVERSAL_TIME_OFFSET ( 8, 0, .AHEAD. ) ;
#47 = DATE_AND_TIME ( #129, #197 ) ;
#48 = DATE_TIME_ROLE ( 'classification_date' ) ;
#49 = DIRECTION ( 'NONE',  ( 0.000000000000000000, 1.000000000000000000, 0.000000000000000000 ) ) ;
#50 = VERTEX_POINT ( 'NONE', #35 ) ;
#51 = ORIENTED_EDGE ( 'NONE', *, *, #174, .T. ) ;
#52 = PLANE ( 'NONE',  #237 ) ;
#53 = PRODUCT_RELATED_PRODUCT_CATEGORY ( 'detail', '', ( #18 ) ) ;
#54 = AXIS2_PLACEMENT_3D ( 'NONE', #153, #235, #233 ) ;
#55 = FACE_OUTER_BOUND ( 'NONE', #215, .T. ) ;
#56 = LINE ( 'NONE', #74, #222 ) ;
#57 = DIRECTION ( 'NONE',  ( -0.000000000000000000, -0.000000000000000000, -1.000000000000000000 ) ) ;
#58 = EDGE_CURVE ( 'NONE', #195, #231, #170, .T. ) ;
#59 = LINE ( 'NONE', #202, #98 ) ;
#60 = VECTOR ( 'NONE', #161, 1000.000000000000000 ) ;
#61 = APPROVAL_STATUS ( 'not_yet_approved' ) ;
#62 = APPROVAL_PERSON_ORGANIZATION ( #33, #101, #79 ) ;
#63 = DIRECTION ( 'NONE',  ( 0.000000000000000000, 0.000000000000000000, 1.000000000000000000 ) ) ;
#64 = ADVANCED_FACE ( 'NONE', ( #17 ), #52, .T. ) ;
#65 = APPROVAL_DATE_TIME ( #145, #214 ) ;
#66 = VECTOR ( 'NONE', #102, 1000.000000000000000 ) ;
#67 = ORIENTED_EDGE ( 'NONE', *, *, #204, .F. ) ;
#68 = VERTEX_POINT ( 'NONE', #223 ) ;
#69 = DIRECTION ( 'NONE',  ( 0.000000000000000000, -0.000000000000000000, 1.000000000000000000 ) ) ;
#70 = CARTESIAN_POINT ( 'NONE',  ( -12.50000000000000000, -12.50000000000000000, 0.000000000000000000 ) ) ;
#71 = ORIENTED_EDGE ( 'NONE', *, *, #160, .T. ) ;
#72 = DIRECTION ( 'NONE',  ( 0.000000000000000000, -0.000000000000000000, -1.000000000000000000 ) ) ;
#73 = CC_DESIGN_DATE_AND_TIME_ASSIGNMENT ( #47, #9, ( #188 ) ) ;
#74 = CARTESIAN_POINT ( 'NONE',  ( -12.50000000000000355, 12.50000000000000000, 2.299999999999999822 ) ) ;
#75 = PLANE ( 'NONE',  #141 ) ;
#76 = DIRECTION ( 'NONE',  ( 1.387778780781445676E-16, -1.000000000000000000, 0.000000000000000000 ) ) ;
#77 = MECHANICAL_CONTEXT ( 'NONE', #8, 'mechanical' ) ;
#78 = PERSON ( 'Î´Ö¸¶¨', 'Î´Ö¸¶¨', 'Î´Ö¸¶¨', ('Î´Ö¸¶¨'), ('Î´Ö¸¶¨'), ('Î´Ö¸¶¨') ) ;
#79 = APPROVAL_ROLE ( '' ) ;
#80 = ORIENTED_EDGE ( 'NONE', *, *, #130, .T. ) ;
#81 = ORIENTED_EDGE ( 'NONE', *, *, #58, .T. ) ;
#82 = PLANE ( 'NONE',  #54 ) ;
#83 = VECTOR ( 'NONE', #137, 1000.000000000000000 ) ;
#84 = ORIENTED_EDGE ( 'NONE', *, *, #58, .F. ) ;
#85 = PLANE ( 'NONE',  #209 ) ;
#86 = DIRECTION ( 'NONE',  ( -1.000000000000000000, -0.000000000000000000, -0.000000000000000000 ) ) ;
#87 = VECTOR ( 'NONE', #5, 1000.000000000000000 ) ;
#88 = CARTESIAN_POINT ( 'NONE',  ( -12.50000000000000355, 12.50000000000000000, 0.000000000000000000 ) ) ;
#89 = PLANE ( 'NONE',  #22 ) ;
#90 = CARTESIAN_POINT ( 'NONE',  ( 12.49999999999999645, 12.50000000000000000, 0.000000000000000000 ) ) ;
#91 = CC_DESIGN_DATE_AND_TIME_ASSIGNMENT ( #109, #48, ( #201 ) ) ;
#92 = VECTOR ( 'NONE', #86, 1000.000000000000000 ) ;
#93 = DIRECTION ( 'NONE',  ( 1.000000000000000000, 0.000000000000000000, 0.000000000000000000 ) ) ;
#94 = PERSON_AND_ORGANIZATION ( #78, #4 ) ;
#95 = CALENDAR_DATE ( 2025, 14, 10 ) ;
#96 = APPLICATION_PROTOCOL_DEFINITION ( 'international standard', 'config_control_design', 1994, #135 ) ;
#97 = CARTESIAN_POINT ( 'NONE',  ( -12.50000000000000000, -12.50000000000000000, 2.299999999999999822 ) ) ;
#98 = VECTOR ( 'NONE', #220, 1000.000000000000000 ) ;
#99 = CARTESIAN_POINT ( 'NONE',  ( 12.49999999999999645, 12.50000000000000000, 2.299999999999999822 ) ) ;
#100 = ORIENTED_EDGE ( 'NONE', *, *, #117, .F. ) ;
#101 = APPROVAL ( #148, 'Î´Ö¸¶¨' ) ;
#102 = DIRECTION ( 'NONE',  ( 1.000000000000000000, 0.000000000000000000, 0.000000000000000000 ) ) ;
#103 = VERTEX_POINT ( 'NONE', #21 ) ;
#104 = MANIFOLD_SOLID_BREP ( 'Í¹Ì¨-À­Éì1', #190 ) ;
#105 = CARTESIAN_POINT ( 'NONE',  ( 12.49999999999999645, 12.50000000000000000, 0.000000000000000000 ) ) ;
#106 = CC_DESIGN_APPROVAL ( #101, ( #225 ) ) ;
#107 = LINE ( 'NONE', #120, #60 ) ;
#108 = CARTESIAN_POINT ( 'NONE',  ( 12.50000000000000000, -12.50000000000000000, 2.299999999999999822 ) ) ;
#109 = DATE_AND_TIME ( #95, #162 ) ;
#110 = APPROVAL_PERSON_ORGANIZATION ( #187, #214, #228 ) ;
#111 = COORDINATED_UNIVERSAL_TIME_OFFSET ( 8, 0, .AHEAD. ) ;
#112 = PERSON_AND_ORGANIZATION ( #78, #4 ) ;
#113 = CC_DESIGN_PERSON_AND_ORGANIZATION_ASSIGNMENT ( #169, #205, ( #225 ) ) ;
#114 = FACE_OUTER_BOUND ( 'NONE', #38, .T. ) ;
#115 = AXIS2_PLACEMENT_3D ( 'NONE', #154, #210, #234 ) ;
#116 = ORIENTED_EDGE ( 'NONE', *, *, #160, .F. ) ;
#117 = EDGE_CURVE ( 'NONE', #50, #156, #200, .T. ) ;
#118 = ORIENTED_EDGE ( 'NONE', *, *, #125, .F. ) ;
#119 = CARTESIAN_POINT ( 'NONE',  ( 0.000000000000000000, 0.000000000000000000, 2.299999999999999822 ) ) ;
#120 = CARTESIAN_POINT ( 'NONE',  ( -12.50000000000000355, 12.50000000000000000, 2.299999999999999822 ) ) ;
#121 = LINE ( 'NONE', #42, #127 ) ;
#122 = CARTESIAN_POINT ( 'NONE',  ( 12.50000000000000000, -12.50000000000000000, 2.299999999999999822 ) ) ;
#123 = CC_DESIGN_SECURITY_CLASSIFICATION ( #201, ( #225 ) ) ;
#124 = LINE ( 'NONE', #88, #92 ) ;
#125 = EDGE_CURVE ( 'NONE', #50, #103, #107, .T. ) ;
#126 = CALENDAR_DATE ( 2025, 14, 10 ) ;
#127 = VECTOR ( 'NONE', #178, 1000.000000000000000 ) ;
#128 = APPROVAL_DATE_TIME ( #207, #101 ) ;
#129 = CALENDAR_DATE ( 2025, 14, 10 ) ;
#130 = EDGE_CURVE ( 'NONE', #103, #68, #182, .T. ) ;
#131 =( GEOMETRIC_REPRESENTATION_CONTEXT ( 3 ) GLOBAL_UNCERTAINTY_ASSIGNED_CONTEXT ( ( #180 ) ) GLOBAL_UNIT_ASSIGNED_CONTEXT ( ( #23, #203, #3 ) ) REPRESENTATION_CONTEXT ( 'NONE', 'WORKASPACE' ) );
#132 = CC_DESIGN_PERSON_AND_ORGANIZATION_ASSIGNMENT ( #94, #168, ( #225 ) ) ;
#133 = PLANE ( 'NONE',  #115 ) ;
#134 = EDGE_LOOP ( 'NONE', ( #71, #213, #84, #16 ) ) ;
#135 = APPLICATION_CONTEXT ( 'configuration controlled 3d designs of mechanical parts and assemblies' ) ;
#136 = VERTEX_POINT ( 'NONE', #90 ) ;
#137 = DIRECTION ( 'NONE',  ( -1.387778780781445676E-16, 1.000000000000000000, -0.000000000000000000 ) ) ;
#138 = CARTESIAN_POINT ( 'NONE',  ( 12.50000000000000000, -12.50000000000000000, 0.000000000000000000 ) ) ;
#139 = LINE ( 'NONE', #105, #167 ) ;
#140 = APPROVAL ( #61, 'Î´Ö¸¶¨' ) ;
#141 = AXIS2_PLACEMENT_3D ( 'NONE', #183, #159, #76 ) ;
#142 = CARTESIAN_POINT ( 'NONE',  ( -12.50000000000000355, 12.50000000000000000, 0.000000000000000000 ) ) ;
#143 = COORDINATED_UNIVERSAL_TIME_OFFSET ( 8, 0, .AHEAD. ) ;
#144 = PERSON_AND_ORGANIZATION_ROLE ( 'creator' ) ;
#145 = DATE_AND_TIME ( #29, #229 ) ;
#146 = SECURITY_CLASSIFICATION_LEVEL ( 'unclassified' ) ;
#147 = ADVANCED_FACE ( 'NONE', ( #221 ), #75, .F. ) ;
#148 = APPROVAL_STATUS ( 'not_yet_approved' ) ;
#149 = CC_DESIGN_APPROVAL ( #214, ( #201 ) ) ;
#150 = ORIENTED_EDGE ( 'NONE', *, *, #157, .T. ) ;
#151 = CC_DESIGN_PERSON_AND_ORGANIZATION_ASSIGNMENT ( #185, #144, ( #188 ) ) ;
#152 = ORIENTED_EDGE ( 'NONE', *, *, #130, .F. ) ;
#153 = CARTESIAN_POINT ( 'NONE',  ( 0.000000000000000000, 0.000000000000000000, 0.000000000000000000 ) ) ;
#154 = CARTESIAN_POINT ( 'NONE',  ( -12.50000000000000355, 12.50000000000000000, 2.299999999999999822 ) ) ;
#155 = EDGE_CURVE ( 'NONE', #231, #136, #1, .T. ) ;
#156 = VERTEX_POINT ( 'NONE', #142 ) ;
#157 = EDGE_CURVE ( 'NONE', #231, #50, #56, .T. ) ;
#158 = LINE ( 'NONE', #122, #175 ) ;
#159 = DIRECTION ( 'NONE',  ( -1.000000000000000000, -1.387778780781445676E-16, 0.000000000000000000 ) ) ;
#160 = EDGE_CURVE ( 'NONE', #171, #136, #139, .T. ) ;
#161 = DIRECTION ( 'NONE',  ( 1.387778780781445676E-16, -1.000000000000000000, 0.000000000000000000 ) ) ;
#162 = LOCAL_TIME ( 14, 24, 8.000000000000000000, #111 ) ;
#163 = DESIGN_CONTEXT ( 'detailed design', #135, 'design' ) ;
#164 = SHAPE_DEFINITION_REPRESENTATION ( #216, #184 ) ;
#165 = PERSON_AND_ORGANIZATION_ROLE ( 'classification_officer' ) ;
#166 = APPROVAL_ROLE ( '' ) ;
#167 = VECTOR ( 'NONE', #219, 1000.000000000000000 ) ;
#168 = PERSON_AND_ORGANIZATION_ROLE ( 'creator' ) ;
#169 = PERSON_AND_ORGANIZATION ( #78, #4 ) ;
#170 = LINE ( 'NONE', #99, #83 ) ;
#171 = VERTEX_POINT ( 'NONE', #138 ) ;
#172 = ORIENTED_EDGE ( 'NONE', *, *, #32, .T. ) ;
#173 = ORIENTED_EDGE ( 'NONE', *, *, #226, .F. ) ;
#174 = EDGE_CURVE ( 'NONE', #103, #195, #59, .T. ) ;
#175 = VECTOR ( 'NONE', #199, 1000.000000000000000 ) ;
#176 = CC_DESIGN_PERSON_AND_ORGANIZATION_ASSIGNMENT ( #112, #31, ( #18 ) ) ;
#177 = ORIENTED_EDGE ( 'NONE', *, *, #155, .T. ) ;
#178 = DIRECTION ( 'NONE',  ( 1.387778780781445676E-16, -1.000000000000000000, 0.000000000000000000 ) ) ;
#179 = DIRECTION ( 'NONE',  ( -0.000000000000000000, -0.000000000000000000, -1.000000000000000000 ) ) ;
#180 = UNCERTAINTY_MEASURE_WITH_UNIT (LENGTH_MEASURE( 1.000000000000000082E-05 ), #23, 'distance_accuracy_value', 'NONE');
#181 = LOCAL_TIME ( 14, 24, 8.000000000000000000, #224 ) ;
#182 = LINE ( 'NONE', #25, #87 ) ;
#183 = CARTESIAN_POINT ( 'NONE',  ( 12.49999999999999645, 12.50000000000000000, 2.299999999999999822 ) ) ;
#184 = ADVANCED_BREP_SHAPE_REPRESENTATION ( '900001', ( #104, #218 ), #131 ) ;
#185 = PERSON_AND_ORGANIZATION ( #78, #4 ) ;
#186 = CARTESIAN_POINT ( 'NONE',  ( 0.000000000000000000, 0.000000000000000000, 0.000000000000000000 ) ) ;
#187 = PERSON_AND_ORGANIZATION ( #78, #4 ) ;
#188 = PRODUCT_DEFINITION ( 'Î´Öª', '', #225, #163 ) ;
#189 = CALENDAR_DATE ( 2025, 14, 10 ) ;
#190 = CLOSED_SHELL ( 'NONE', ( #147, #232, #12, #15, #64, #10 ) ) ;
#191 = ORIENTED_EDGE ( 'NONE', *, *, #204, .T. ) ;
#192 = LINE ( 'NONE', #70, #66 ) ;
#193 = CC_DESIGN_APPROVAL ( #140, ( #188 ) ) ;
#194 = ORIENTED_EDGE ( 'NONE', *, *, #208, .T. ) ;
#195 = VERTEX_POINT ( 'NONE', #108 ) ;
#196 = DIRECTION ( 'NONE',  ( -0.000000000000000000, 0.000000000000000000, 1.000000000000000000 ) ) ;
#197 = LOCAL_TIME ( 14, 24, 8.000000000000000000, #46 ) ;
#198 = CARTESIAN_POINT ( 'NONE',  ( 12.49999999999999645, 12.50000000000000000, 2.299999999999999822 ) ) ;
#199 = DIRECTION ( 'NONE',  ( -0.000000000000000000, -0.000000000000000000, -1.000000000000000000 ) ) ;
#200 = LINE ( 'NONE', #2, #45 ) ;
#201 = SECURITY_CLASSIFICATION ( '', '', #146 ) ;
#202 = CARTESIAN_POINT ( 'NONE',  ( -12.50000000000000000, -12.50000000000000000, 2.299999999999999822 ) ) ;
#203 =( NAMED_UNIT ( * ) PLANE_ANGLE_UNIT ( ) SI_UNIT ( $, .RADIAN. ) );
#204 = EDGE_CURVE ( 'NONE', #136, #156, #124, .T. ) ;
#205 = PERSON_AND_ORGANIZATION_ROLE ( 'design_supplier' ) ;
#206 = VECTOR ( 'NONE', #179, 1000.000000000000000 ) ;
#207 = DATE_AND_TIME ( #189, #212 ) ;
#208 = EDGE_CURVE ( 'NONE', #156, #68, #121, .T. ) ;
#209 = AXIS2_PLACEMENT_3D ( 'NONE', #97, #49, #69 ) ;
#210 = DIRECTION ( 'NONE',  ( 1.000000000000000000, 1.387778780781445676E-16, -0.000000000000000000 ) ) ;
#211 = EDGE_LOOP ( 'NONE', ( #81, #150, #7, #51 ) ) ;
#212 = LOCAL_TIME ( 14, 24, 8.000000000000000000, #143 ) ;
#213 = ORIENTED_EDGE ( 'NONE', *, *, #155, .F. ) ;
#214 = APPROVAL ( #28, 'Î´Ö¸¶¨' ) ;
#215 = EDGE_LOOP ( 'NONE', ( #194, #152, #118, #230 ) ) ;
#216 = PRODUCT_DEFINITION_SHAPE ( 'NONE', 'NONE',  #188 ) ;
#217 = ORIENTED_EDGE ( 'NONE', *, *, #174, .F. ) ;
#218 = AXIS2_PLACEMENT_3D ( 'NONE', #186, #63, #93 ) ;
#219 = DIRECTION ( 'NONE',  ( -1.387778780781445676E-16, 1.000000000000000000, -0.000000000000000000 ) ) ;
#220 = DIRECTION ( 'NONE',  ( 1.000000000000000000, 0.000000000000000000, 0.000000000000000000 ) ) ;
#221 = FACE_OUTER_BOUND ( 'NONE', #134, .T. ) ;
#222 = VECTOR ( 'NONE', #39, 1000.000000000000000 ) ;
#223 = CARTESIAN_POINT ( 'NONE',  ( -12.50000000000000000, -12.50000000000000000, 0.000000000000000000 ) ) ;
#224 = COORDINATED_UNIVERSAL_TIME_OFFSET ( 8, 0, .AHEAD. ) ;
#225 = PRODUCT_DEFINITION_FORMATION_WITH_SPECIFIED_SOURCE ( 'ÈÎºÎ', '', #18, .NOT_KNOWN. ) ;
#226 = EDGE_CURVE ( 'NONE', #195, #171, #158, .T. ) ;
#227 = DATE_AND_TIME ( #126, #181 ) ;
#228 = APPROVAL_ROLE ( '' ) ;
#229 = LOCAL_TIME ( 14, 24, 8.000000000000000000, #30 ) ;
#230 = ORIENTED_EDGE ( 'NONE', *, *, #117, .T. ) ;
#231 = VERTEX_POINT ( 'NONE', #236 ) ;
#232 = ADVANCED_FACE ( 'NONE', ( #43 ), #89, .F. ) ;
#233 = DIRECTION ( 'NONE',  ( 1.000000000000000000, 0.000000000000000000, 0.000000000000000000 ) ) ;
#234 = DIRECTION ( 'NONE',  ( -1.387778780781445676E-16, 1.000000000000000000, 0.000000000000000000 ) ) ;
#235 = DIRECTION ( 'NONE',  ( -0.000000000000000000, 0.000000000000000000, 1.000000000000000000 ) ) ;
#236 = CARTESIAN_POINT ( 'NONE',  ( 12.49999999999999645, 12.50000000000000000, 2.299999999999999822 ) ) ;
#237 = AXIS2_PLACEMENT_3D ( 'NONE', #119, #196, #20 ) ;
ENDSEC;
END-ISO-10303-21;
