ISO-10303-21;
HEADER;
FILE_DESCRIPTION (( 'STEP AP203' ),
    '1' );
FILE_NAME ('900002.STEP',
    '2025-10-14T06:19:00',
    ( 'Windows User' ),
    ( 'P R C' ),
    'SwSTEP 2.0',
    'SolidWorks 2020',
    '' );
FILE_SCHEMA (( 'CONFIG_CONTROL_DESIGN' ));
ENDSEC;

DATA;
#1 = CARTESIAN_POINT ( 'NONE',  ( 12.50000000000000178, -12.50000000000000178, 0.000000000000000000 ) ) ;
#2 = EDGE_CURVE ( 'NONE', #150, #224, #41, .T. ) ;
#3 = ORIENTED_EDGE ( 'NONE', *, *, #134, .F. ) ;
#4 = VERTEX_POINT ( 'NONE', #167 ) ;
#5 = AXIS2_PLACEMENT_3D ( 'NONE', #144, #13, #28 ) ;
#6 = ORIENTED_EDGE ( 'NONE', *, *, #151, .T. ) ;
#7 = ORIENTED_EDGE ( 'NONE', *, *, #201, .F. ) ;
#8 = CARTESIAN_POINT ( 'NONE',  ( -12.50000000000000178, 12.49999999999999822, 2.299999999999999822 ) ) ;
#9 = SECURITY_CLASSIFICATION ( '', '', #182 ) ;
#10 = DIRECTION ( 'NONE',  ( -1.000000000000000000, -1.387778780781445676E-16, 0.000000000000000000 ) ) ;
#11 = DIRECTION ( 'NONE',  ( 1.000000000000000000, 0.000000000000000000, 0.000000000000000000 ) ) ;
#12 = CARTESIAN_POINT ( 'NONE',  ( 12.49999999999999822, 12.49999999999999822, 0.000000000000000000 ) ) ;
#13 = DIRECTION ( 'NONE',  ( 0.000000000000000000, 1.000000000000000000, 0.000000000000000000 ) ) ;
#14 = CALENDAR_DATE ( 2025, 14, 10 ) ;
#15 = EDGE_CURVE ( 'NONE', #4, #76, #59, .T. ) ;
#16 = DESIGN_CONTEXT ( 'detailed design', #111, 'design' ) ;
#17 = APPROVAL_STATUS ( 'not_yet_approved' ) ;
#18 = APPROVAL_STATUS ( 'not_yet_approved' ) ;
#19 = DATE_TIME_ROLE ( 'creation_date' ) ;
#20 = DATE_AND_TIME ( #164, #218 ) ;
#21 = FACE_OUTER_BOUND ( 'NONE', #153, .T. ) ;
#22 = APPROVAL ( #18, 'Î´Ö¸¶¨' ) ;
#23 = VERTEX_POINT ( 'NONE', #207 ) ;
#24 = CARTESIAN_POINT ( 'NONE',  ( 12.49999999999999822, 12.49999999999999822, 2.299999999999999822 ) ) ;
#25 = CARTESIAN_POINT ( 'NONE',  ( -12.50000000000000178, 12.49999999999999822, 0.000000000000000000 ) ) ;
#26 = VECTOR ( 'NONE', #82, 1000.000000000000000 ) ;
#27 = EDGE_LOOP ( 'NONE', ( #228, #7, #119, #6 ) ) ;
#28 = DIRECTION ( 'NONE',  ( 0.000000000000000000, -0.000000000000000000, 1.000000000000000000 ) ) ;
#29 = DIRECTION ( 'NONE',  ( -1.000000000000000000, -0.000000000000000000, -0.000000000000000000 ) ) ;
#30 = FACE_OUTER_BOUND ( 'NONE', #80, .T. ) ;
#31 =( NAMED_UNIT ( * ) SI_UNIT ( $, .STERADIAN. ) SOLID_ANGLE_UNIT ( ) );
#32 = MANIFOLD_SOLID_BREP ( 'Í¹Ì¨-À­Éì1', #121 ) ;
#33 = PERSON_AND_ORGANIZATION ( #178, #36 ) ;
#34 = PERSON_AND_ORGANIZATION ( #178, #36 ) ;
#35 = APPROVAL_ROLE ( '' ) ;
#36 = ORGANIZATION ( 'Î´Ö¸¶¨', 'Î´Ö¸¶¨', '' ) ;
#37 = CC_DESIGN_DATE_AND_TIME_ASSIGNMENT ( #130, #19, ( #149 ) ) ;
#38 = ORIENTED_EDGE ( 'NONE', *, *, #134, .T. ) ;
#39 = DIRECTION ( 'NONE',  ( -0.000000000000000000, 0.000000000000000000, 1.000000000000000000 ) ) ;
#40 = APPROVAL_PERSON_ORGANIZATION ( #162, #22, #222 ) ;
#41 = LINE ( 'NONE', #184, #198 ) ;
#42 = CARTESIAN_POINT ( 'NONE',  ( 0.000000000000000000, 0.000000000000000000, 2.299999999999999822 ) ) ;
#43 = ORIENTED_EDGE ( 'NONE', *, *, #151, .F. ) ;
#44 = DIRECTION ( 'NONE',  ( 0.000000000000000000, -1.000000000000000000, 0.000000000000000000 ) ) ;
#45 = DIRECTION ( 'NONE',  ( -0.000000000000000000, 0.000000000000000000, 1.000000000000000000 ) ) ;
#46 = EDGE_CURVE ( 'NONE', #76, #150, #139, .T. ) ;
#47 = PLANE ( 'NONE',  #143 ) ;
#48 =( NAMED_UNIT ( * ) PLANE_ANGLE_UNIT ( ) SI_UNIT ( $, .RADIAN. ) );
#49 = MECHANICAL_CONTEXT ( 'NONE', #60, 'mechanical' ) ;
#50 = CARTESIAN_POINT ( 'NONE',  ( 0.000000000000000000, 0.000000000000000000, 0.000000000000000000 ) ) ;
#51 =( GEOMETRIC_REPRESENTATION_CONTEXT ( 3 ) GLOBAL_UNCERTAINTY_ASSIGNED_CONTEXT ( ( #160 ) ) GLOBAL_UNIT_ASSIGNED_CONTEXT ( ( #68, #48, #31 ) ) REPRESENTATION_CONTEXT ( 'NONE', 'WORKASPACE' ) );
#52 = VECTOR ( 'NONE', #101, 1000.000000000000000 ) ;
#53 = PERSON_AND_ORGANIZATION_ROLE ( 'creator' ) ;
#54 = COORDINATED_UNIVERSAL_TIME_OFFSET ( 8, 0, .AHEAD. ) ;
#55 = ADVANCED_BREP_SHAPE_REPRESENTATION ( '900002', ( #32, #100 ), #51 ) ;
#56 = PERSON_AND_ORGANIZATION_ROLE ( 'design_owner' ) ;
#57 = VECTOR ( 'NONE', #212, 1000.000000000000000 ) ;
#58 = EDGE_CURVE ( 'NONE', #63, #186, #61, .T. ) ;
#59 = LINE ( 'NONE', #225, #73 ) ;
#60 = APPLICATION_CONTEXT ( 'configuration controlled 3d designs of mechanical parts and assemblies' ) ;
#61 = LINE ( 'NONE', #135, #219 ) ;
#62 = ORIENTED_EDGE ( 'NONE', *, *, #46, .T. ) ;
#63 = VERTEX_POINT ( 'NONE', #137 ) ;
#64 = ORIENTED_EDGE ( 'NONE', *, *, #117, .T. ) ;
#65 = ADVANCED_FACE ( 'NONE', ( #21 ), #95, .T. ) ;
#66 = CARTESIAN_POINT ( 'NONE',  ( 12.50000000000000178, -12.50000000000000178, 2.299999999999999822 ) ) ;
#67 = DIRECTION ( 'NONE',  ( 1.387778780781445676E-16, -1.000000000000000000, 0.000000000000000000 ) ) ;
#68 =( LENGTH_UNIT ( ) NAMED_UNIT ( * ) SI_UNIT ( .MILLI., .METRE. ) );
#69 = CARTESIAN_POINT ( 'NONE',  ( -12.50000000000000178, 12.49999999999999822, 2.299999999999999822 ) ) ;
#70 = DIRECTION ( 'NONE',  ( 1.000000000000000000, 0.000000000000000000, 0.000000000000000000 ) ) ;
#71 = COORDINATED_UNIVERSAL_TIME_OFFSET ( 8, 0, .AHEAD. ) ;
#72 = CC_DESIGN_SECURITY_CLASSIFICATION ( #9, ( #136 ) ) ;
#73 = VECTOR ( 'NONE', #206, 1000.000000000000000 ) ;
#74 = PERSON_AND_ORGANIZATION_ROLE ( 'classification_officer' ) ;
#75 = LINE ( 'NONE', #25, #213 ) ;
#76 = VERTEX_POINT ( 'NONE', #187 ) ;
#77 = VERTEX_POINT ( 'NONE', #1 ) ;
#78 = AXIS2_PLACEMENT_3D ( 'NONE', #42, #39, #118 ) ;
#79 = ORIENTED_EDGE ( 'NONE', *, *, #15, .T. ) ;
#80 = EDGE_LOOP ( 'NONE', ( #154, #170, #226, #152 ) ) ;
#81 = APPROVAL ( #17, 'Î´Ö¸¶¨' ) ;
#82 = DIRECTION ( 'NONE',  ( 1.387778780781445676E-16, -1.000000000000000000, 0.000000000000000000 ) ) ;
#83 = PLANE ( 'NONE',  #197 ) ;
#84 = DIRECTION ( 'NONE',  ( -1.387778780781445676E-16, 1.000000000000000000, -0.000000000000000000 ) ) ;
#85 = CARTESIAN_POINT ( 'NONE',  ( 12.49999999999999822, 12.49999999999999822, 0.000000000000000000 ) ) ;
#86 = APPROVAL_PERSON_ORGANIZATION ( #108, #200, #35 ) ;
#87 = PRODUCT_DEFINITION_SHAPE ( 'NONE', 'NONE',  #149 ) ;
#88 = CARTESIAN_POINT ( 'NONE',  ( -12.50000000000000178, 12.49999999999999822, 2.299999999999999822 ) ) ;
#89 = SHAPE_DEFINITION_REPRESENTATION ( #87, #55 ) ;
#90 = CC_DESIGN_PERSON_AND_ORGANIZATION_ASSIGNMENT ( #127, #56, ( #105 ) ) ;
#91 = PERSON_AND_ORGANIZATION ( #178, #36 ) ;
#92 = APPROVAL_DATE_TIME ( #215, #200 ) ;
#93 = DIRECTION ( 'NONE',  ( 0.000000000000000000, 0.000000000000000000, 1.000000000000000000 ) ) ;
#94 = VECTOR ( 'NONE', #84, 1000.000000000000000 ) ;
#95 = PLANE ( 'NONE',  #78 ) ;
#96 = ORIENTED_EDGE ( 'NONE', *, *, #46, .F. ) ;
#97 = DIRECTION ( 'NONE',  ( 1.387778780781445676E-16, -1.000000000000000000, 0.000000000000000000 ) ) ;
#98 = DIRECTION ( 'NONE',  ( -1.000000000000000000, -0.000000000000000000, -0.000000000000000000 ) ) ;
#99 = LOCAL_TIME ( 14, 19, 0.000000000000000000, #71 ) ;
#100 = AXIS2_PLACEMENT_3D ( 'NONE', #50, #93, #70 ) ;
#101 = DIRECTION ( 'NONE',  ( -1.387778780781445676E-16, 1.000000000000000000, -0.000000000000000000 ) ) ;
#102 = FACE_OUTER_BOUND ( 'NONE', #155, .T. ) ;
#103 = LINE ( 'NONE', #8, #26 ) ;
#104 = CARTESIAN_POINT ( 'NONE',  ( -12.50000000000000178, 12.49999999999999822, 2.299999999999999822 ) ) ;
#105 = PRODUCT ( '900002', '900002', '', ( #49 ) ) ;
#106 = APPLICATION_PROTOCOL_DEFINITION ( 'international standard', 'config_control_design', 1994, #60 ) ;
#107 = AXIS2_PLACEMENT_3D ( 'NONE', #192, #10, #67 ) ;
#108 = PERSON_AND_ORGANIZATION ( #178, #36 ) ;
#109 = EDGE_CURVE ( 'NONE', #224, #63, #75, .T. ) ;
#110 = APPROVAL_DATE_TIME ( #147, #81 ) ;
#111 = APPLICATION_CONTEXT ( 'configuration controlled 3d designs of mechanical parts and assemblies' ) ;
#112 = VECTOR ( 'NONE', #230, 1000.000000000000000 ) ;
#113 = CC_DESIGN_APPROVAL ( #200, ( #149 ) ) ;
#114 = ORIENTED_EDGE ( 'NONE', *, *, #129, .T. ) ;
#115 = EDGE_CURVE ( 'NONE', #186, #77, #141, .T. ) ;
#116 = ORIENTED_EDGE ( 'NONE', *, *, #2, .T. ) ;
#117 = EDGE_CURVE ( 'NONE', #23, #4, #103, .T. ) ;
#118 = DIRECTION ( 'NONE',  ( 1.000000000000000000, 0.000000000000000000, 0.000000000000000000 ) ) ;
#119 = ORIENTED_EDGE ( 'NONE', *, *, #117, .F. ) ;
#120 = CC_DESIGN_APPROVAL ( #81, ( #136 ) ) ;
#121 = CLOSED_SHELL ( 'NONE', ( #126, #168, #220, #176, #65, #193 ) ) ;
#122 = PLANE ( 'NONE',  #5 ) ;
#123 = LINE ( 'NONE', #158, #57 ) ;
#124 = FACE_OUTER_BOUND ( 'NONE', #227, .T. ) ;
#125 = LINE ( 'NONE', #88, #128 ) ;
#126 = ADVANCED_FACE ( 'NONE', ( #102 ), #161, .F. ) ;
#127 = PERSON_AND_ORGANIZATION ( #178, #36 ) ;
#128 = VECTOR ( 'NONE', #179, 1000.000000000000000 ) ;
#129 = EDGE_CURVE ( 'NONE', #76, #77, #174, .T. ) ;
#130 = DATE_AND_TIME ( #199, #99 ) ;
#131 = APPLICATION_PROTOCOL_DEFINITION ( 'international standard', 'config_control_design', 1994, #111 ) ;
#132 = DATE_TIME_ROLE ( 'classification_date' ) ;
#133 = APPROVAL_STATUS ( 'not_yet_approved' ) ;
#134 = EDGE_CURVE ( 'NONE', #150, #23, #211, .T. ) ;
#135 = CARTESIAN_POINT ( 'NONE',  ( -12.50000000000000178, 12.49999999999999822, 0.000000000000000000 ) ) ;
#136 = PRODUCT_DEFINITION_FORMATION_WITH_SPECIFIED_SOURCE ( 'ÈÎºÎ', '', #105, .NOT_KNOWN. ) ;
#137 = CARTESIAN_POINT ( 'NONE',  ( -12.50000000000000178, 12.49999999999999822, 0.000000000000000000 ) ) ;
#138 = DIRECTION ( 'NONE',  ( -0.000000000000000000, -0.000000000000000000, -1.000000000000000000 ) ) ;
#139 = LINE ( 'NONE', #24, #52 ) ;
#140 = ORIENTED_EDGE ( 'NONE', *, *, #235, .T. ) ;
#141 = LINE ( 'NONE', #142, #159 ) ;
#142 = CARTESIAN_POINT ( 'NONE',  ( -12.49999999999999822, -12.50000000000000178, 0.000000000000000000 ) ) ;
#143 = AXIS2_PLACEMENT_3D ( 'NONE', #195, #194, #177 ) ;
#144 = CARTESIAN_POINT ( 'NONE',  ( -12.49999999999999822, -12.50000000000000178, 2.299999999999999822 ) ) ;
#145 = COORDINATED_UNIVERSAL_TIME_OFFSET ( 8, 0, .AHEAD. ) ;
#146 = LOCAL_TIME ( 14, 19, 0.000000000000000000, #163 ) ;
#147 = DATE_AND_TIME ( #14, #223 ) ;
#148 = COORDINATED_UNIVERSAL_TIME_OFFSET ( 8, 0, .AHEAD. ) ;
#149 = PRODUCT_DEFINITION ( 'Î´Öª', '', #136, #16 ) ;
#150 = VERTEX_POINT ( 'NONE', #233 ) ;
#151 = EDGE_CURVE ( 'NONE', #23, #63, #125, .T. ) ;
#152 = ORIENTED_EDGE ( 'NONE', *, *, #109, .F. ) ;
#153 = EDGE_LOOP ( 'NONE', ( #62, #38, #64, #79 ) ) ;
#154 = ORIENTED_EDGE ( 'NONE', *, *, #235, .F. ) ;
#155 = EDGE_LOOP ( 'NONE', ( #140, #169, #96, #114 ) ) ;
#156 = DIRECTION ( 'NONE',  ( 0.000000000000000000, -0.000000000000000000, -1.000000000000000000 ) ) ;
#157 = CC_DESIGN_PERSON_AND_ORGANIZATION_ASSIGNMENT ( #91, #74, ( #9 ) ) ;
#158 = CARTESIAN_POINT ( 'NONE',  ( -12.49999999999999822, -12.50000000000000178, 2.299999999999999822 ) ) ;
#159 = VECTOR ( 'NONE', #190, 1000.000000000000000 ) ;
#160 = UNCERTAINTY_MEASURE_WITH_UNIT (LENGTH_MEASURE( 1.000000000000000082E-05 ), #68, 'distance_accuracy_value', 'NONE');
#161 = PLANE ( 'NONE',  #107 ) ;
#162 = PERSON_AND_ORGANIZATION ( #178, #36 ) ;
#163 = COORDINATED_UNIVERSAL_TIME_OFFSET ( 8, 0, .AHEAD. ) ;
#164 = CALENDAR_DATE ( 2025, 14, 10 ) ;
#165 = CC_DESIGN_PERSON_AND_ORGANIZATION_ASSIGNMENT ( #236, #202, ( #136 ) ) ;
#166 = VECTOR ( 'NONE', #29, 1000.000000000000000 ) ;
#167 = CARTESIAN_POINT ( 'NONE',  ( -12.49999999999999822, -12.50000000000000178, 2.299999999999999822 ) ) ;
#168 = ADVANCED_FACE ( 'NONE', ( #210 ), #83, .F. ) ;
#169 = ORIENTED_EDGE ( 'NONE', *, *, #2, .F. ) ;
#170 = ORIENTED_EDGE ( 'NONE', *, *, #115, .F. ) ;
#171 = EDGE_LOOP ( 'NONE', ( #185, #43, #3, #116 ) ) ;
#172 = ORIENTED_EDGE ( 'NONE', *, *, #129, .F. ) ;
#173 = CARTESIAN_POINT ( 'NONE',  ( 0.000000000000000000, 0.000000000000000000, 0.000000000000000000 ) ) ;
#174 = LINE ( 'NONE', #66, #112 ) ;
#175 = CC_DESIGN_APPROVAL ( #22, ( #9 ) ) ;
#176 = ADVANCED_FACE ( 'NONE', ( #124 ), #122, .F. ) ;
#177 = DIRECTION ( 'NONE',  ( -1.387778780781445676E-16, 1.000000000000000000, 0.000000000000000000 ) ) ;
#178 = PERSON ( 'Î´Ö¸¶¨', 'Î´Ö¸¶¨', 'Î´Ö¸¶¨', ('Î´Ö¸¶¨'), ('Î´Ö¸¶¨'), ('Î´Ö¸¶¨') ) ;
#179 = DIRECTION ( 'NONE',  ( -0.000000000000000000, -0.000000000000000000, -1.000000000000000000 ) ) ;
#180 = CARTESIAN_POINT ( 'NONE',  ( -12.49999999999999822, -12.50000000000000178, 0.000000000000000000 ) ) ;
#181 = APPROVAL_ROLE ( '' ) ;
#182 = SECURITY_CLASSIFICATION_LEVEL ( 'unclassified' ) ;
#183 = PERSON_AND_ORGANIZATION ( #178, #36 ) ;
#184 = CARTESIAN_POINT ( 'NONE',  ( 12.49999999999999822, 12.49999999999999822, 2.299999999999999822 ) ) ;
#185 = ORIENTED_EDGE ( 'NONE', *, *, #109, .T. ) ;
#186 = VERTEX_POINT ( 'NONE', #180 ) ;
#187 = CARTESIAN_POINT ( 'NONE',  ( 12.50000000000000178, -12.50000000000000178, 2.299999999999999822 ) ) ;
#188 = LOCAL_TIME ( 14, 19, 0.000000000000000000, #145 ) ;
#189 = ORIENTED_EDGE ( 'NONE', *, *, #201, .T. ) ;
#190 = DIRECTION ( 'NONE',  ( 1.000000000000000000, 0.000000000000000000, 0.000000000000000000 ) ) ;
#191 = CC_DESIGN_DATE_AND_TIME_ASSIGNMENT ( #20, #132, ( #9 ) ) ;
#192 = CARTESIAN_POINT ( 'NONE',  ( 12.49999999999999822, 12.49999999999999822, 2.299999999999999822 ) ) ;
#193 = ADVANCED_FACE ( 'NONE', ( #30 ), #229, .F. ) ;
#194 = DIRECTION ( 'NONE',  ( 1.000000000000000000, 1.387778780781445676E-16, -0.000000000000000000 ) ) ;
#195 = CARTESIAN_POINT ( 'NONE',  ( -12.50000000000000178, 12.49999999999999822, 2.299999999999999822 ) ) ;
#196 = CALENDAR_DATE ( 2025, 14, 10 ) ;
#197 = AXIS2_PLACEMENT_3D ( 'NONE', #69, #44, #156 ) ;
#198 = VECTOR ( 'NONE', #138, 1000.000000000000000 ) ;
#199 = CALENDAR_DATE ( 2025, 14, 10 ) ;
#200 = APPROVAL ( #133, 'Î´Ö¸¶¨' ) ;
#201 = EDGE_CURVE ( 'NONE', #4, #186, #123, .T. ) ;
#202 = PERSON_AND_ORGANIZATION_ROLE ( 'design_supplier' ) ;
#203 = AXIS2_PLACEMENT_3D ( 'NONE', #173, #45, #11 ) ;
#204 = APPROVAL_DATE_TIME ( #237, #22 ) ;
#205 = ORIENTED_EDGE ( 'NONE', *, *, #115, .T. ) ;
#206 = DIRECTION ( 'NONE',  ( 1.000000000000000000, 0.000000000000000000, 0.000000000000000000 ) ) ;
#207 = CARTESIAN_POINT ( 'NONE',  ( -12.50000000000000178, 12.49999999999999822, 2.299999999999999822 ) ) ;
#208 = ORIENTED_EDGE ( 'NONE', *, *, #15, .F. ) ;
#209 = CC_DESIGN_PERSON_AND_ORGANIZATION_ASSIGNMENT ( #183, #53, ( #149 ) ) ;
#210 = FACE_OUTER_BOUND ( 'NONE', #171, .T. ) ;
#211 = LINE ( 'NONE', #104, #166 ) ;
#212 = DIRECTION ( 'NONE',  ( -0.000000000000000000, -0.000000000000000000, -1.000000000000000000 ) ) ;
#213 = VECTOR ( 'NONE', #98, 1000.000000000000000 ) ;
#214 = FACE_OUTER_BOUND ( 'NONE', #27, .T. ) ;
#215 = DATE_AND_TIME ( #196, #188 ) ;
#216 = PRODUCT_RELATED_PRODUCT_CATEGORY ( 'detail', '', ( #105 ) ) ;
#217 = CALENDAR_DATE ( 2025, 14, 10 ) ;
#218 = LOCAL_TIME ( 14, 19, 0.000000000000000000, #148 ) ;
#219 = VECTOR ( 'NONE', #97, 1000.000000000000000 ) ;
#220 = ADVANCED_FACE ( 'NONE', ( #214 ), #47, .F. ) ;
#221 = PERSON_AND_ORGANIZATION_ROLE ( 'creator' ) ;
#222 = APPROVAL_ROLE ( '' ) ;
#223 = LOCAL_TIME ( 14, 19, 0.000000000000000000, #54 ) ;
#224 = VERTEX_POINT ( 'NONE', #85 ) ;
#225 = CARTESIAN_POINT ( 'NONE',  ( -12.49999999999999822, -12.50000000000000178, 2.299999999999999822 ) ) ;
#226 = ORIENTED_EDGE ( 'NONE', *, *, #58, .F. ) ;
#227 = EDGE_LOOP ( 'NONE', ( #205, #172, #208, #189 ) ) ;
#228 = ORIENTED_EDGE ( 'NONE', *, *, #58, .T. ) ;
#229 = PLANE ( 'NONE',  #203 ) ;
#230 = DIRECTION ( 'NONE',  ( -0.000000000000000000, -0.000000000000000000, -1.000000000000000000 ) ) ;
#231 = LINE ( 'NONE', #12, #94 ) ;
#232 = APPROVAL_PERSON_ORGANIZATION ( #33, #81, #181 ) ;
#233 = CARTESIAN_POINT ( 'NONE',  ( 12.49999999999999822, 12.49999999999999822, 2.299999999999999822 ) ) ;
#234 = CC_DESIGN_PERSON_AND_ORGANIZATION_ASSIGNMENT ( #34, #221, ( #136 ) ) ;
#235 = EDGE_CURVE ( 'NONE', #77, #224, #231, .T. ) ;
#236 = PERSON_AND_ORGANIZATION ( #178, #36 ) ;
#237 = DATE_AND_TIME ( #217, #146 ) ;
ENDSEC;
END-ISO-10303-21;
