ISO-10303-21;
HEADER;
FILE_DESCRIPTION (( 'STEP AP203' ),
    '1' );
FILE_NAME ('900003.STEP',
    '2025-10-14T06:24:47',
    ( 'Windows User' ),
    ( 'P R C' ),
    'SwSTEP 2.0',
    'SolidWorks 2020',
    '' );
FILE_SCHEMA (( 'CONFIG_CONTROL_DESIGN' ));
ENDSEC;

DATA;
#1 = DIRECTION ( 'NONE',  ( 0.000000000000000000, -0.000000000000000000, 1.000000000000000000 ) ) ;
#2 = VECTOR ( 'NONE', #214, 1000.000000000000000 ) ;
#3 = APPROVAL ( #163, 'Î´Ö¸¶¨' ) ;
#4 =( NAMED_UNIT ( * ) SI_UNIT ( $, .STERADIAN. ) SOLID_ANGLE_UNIT ( ) );
#5 = CARTESIAN_POINT ( 'NONE',  ( -12.49999999999999822, -12.50000000000000178, 2.299999999999999822 ) ) ;
#6 = PERSON_AND_ORGANIZATION ( #67, #146 ) ;
#7 = PRODUCT_DEFINITION_SHAPE ( 'NONE', 'NONE',  #53 ) ;
#8 = ADVANCED_FACE ( 'NONE', ( #116 ), #97, .T. ) ;
#9 = DATE_TIME_ROLE ( 'classification_date' ) ;
#10 = DATE_AND_TIME ( #186, #223 ) ;
#11 = ORIENTED_EDGE ( 'NONE', *, *, #117, .F. ) ;
#12 = PERSON_AND_ORGANIZATION ( #67, #146 ) ;
#13 = PERSON_AND_ORGANIZATION ( #67, #146 ) ;
#14 = VECTOR ( 'NONE', #210, 1000.000000000000000 ) ;
#15 = DIRECTION ( 'NONE',  ( -0.000000000000000000, 0.000000000000000000, 1.000000000000000000 ) ) ;
#16 = CARTESIAN_POINT ( 'NONE',  ( 0.000000000000000000, 0.000000000000000000, 2.299999999999999822 ) ) ;
#17 = EDGE_LOOP ( 'NONE', ( #149, #191, #126, #215 ) ) ;
#18 = UNCERTAINTY_MEASURE_WITH_UNIT (LENGTH_MEASURE( 1.000000000000000082E-05 ), #101, 'distance_accuracy_value', 'NONE');
#19 = DIRECTION ( 'NONE',  ( 1.000000000000000000, 0.000000000000000000, 0.000000000000000000 ) ) ;
#20 = DIRECTION ( 'NONE',  ( -0.000000000000000000, -0.000000000000000000, -1.000000000000000000 ) ) ;
#21 = CC_DESIGN_PERSON_AND_ORGANIZATION_ASSIGNMENT ( #13, #187, ( #204 ) ) ;
#22 = ORIENTED_EDGE ( 'NONE', *, *, #91, .T. ) ;
#23 = AXIS2_PLACEMENT_3D ( 'NONE', #236, #237, #73 ) ;
#24 = CARTESIAN_POINT ( 'NONE',  ( -12.50000000000000178, 12.49999999999999822, 2.299999999999999822 ) ) ;
#25 = MECHANICAL_CONTEXT ( 'NONE', #183, 'mechanical' ) ;
#26 = PERSON_AND_ORGANIZATION ( #67, #146 ) ;
#27 = SECURITY_CLASSIFICATION_LEVEL ( 'unclassified' ) ;
#28 = CARTESIAN_POINT ( 'NONE',  ( 12.49999999999999822, 12.49999999999999822, 2.299999999999999822 ) ) ;
#29 = APPROVAL_STATUS ( 'not_yet_approved' ) ;
#30 = VERTEX_POINT ( 'NONE', #28 ) ;
#31 = CC_DESIGN_PERSON_AND_ORGANIZATION_ASSIGNMENT ( #26, #128, ( #53 ) ) ;
#32 = DIRECTION ( 'NONE',  ( 0.000000000000000000, 0.000000000000000000, 1.000000000000000000 ) ) ;
#33 = APPROVAL_PERSON_ORGANIZATION ( #6, #3, #59 ) ;
#34 = ORIENTED_EDGE ( 'NONE', *, *, #102, .F. ) ;
#35 = EDGE_LOOP ( 'NONE', ( #82, #144, #96, #22 ) ) ;
#36 = LINE ( 'NONE', #100, #137 ) ;
#37 = CARTESIAN_POINT ( 'NONE',  ( -12.50000000000000178, 12.49999999999999822, 2.299999999999999822 ) ) ;
#38 = LOCAL_TIME ( 14, 24, 47.00000000000000000, #62 ) ;
#39 = LINE ( 'NONE', #42, #72 ) ;
#40 = EDGE_CURVE ( 'NONE', #154, #54, #69, .T. ) ;
#41 = PLANE ( 'NONE',  #23 ) ;
#42 = CARTESIAN_POINT ( 'NONE',  ( -12.50000000000000178, 12.49999999999999822, 0.000000000000000000 ) ) ;
#43 = VECTOR ( 'NONE', #194, 1000.000000000000000 ) ;
#44 = CC_DESIGN_APPROVAL ( #155, ( #53 ) ) ;
#45 = CC_DESIGN_PERSON_AND_ORGANIZATION_ASSIGNMENT ( #12, #92, ( #61 ) ) ;
#46 = CALENDAR_DATE ( 2025, 14, 10 ) ;
#47 = APPROVAL_ROLE ( '' ) ;
#48 = ORIENTED_EDGE ( 'NONE', *, *, #121, .T. ) ;
#49 = COORDINATED_UNIVERSAL_TIME_OFFSET ( 8, 0, .AHEAD. ) ;
#50 = ORIENTED_EDGE ( 'NONE', *, *, #98, .F. ) ;
#51 = DIRECTION ( 'NONE',  ( 1.000000000000000000, 0.000000000000000000, 0.000000000000000000 ) ) ;
#52 = ORIENTED_EDGE ( 'NONE', *, *, #127, .F. ) ;
#53 = PRODUCT_DEFINITION ( 'Î´Öª', '', #204, #232 ) ;
#54 = VERTEX_POINT ( 'NONE', #66 ) ;
#55 = ORIENTED_EDGE ( 'NONE', *, *, #197, .F. ) ;
#56 = DIRECTION ( 'NONE',  ( -0.000000000000000000, -0.000000000000000000, -1.000000000000000000 ) ) ;
#57 = FACE_OUTER_BOUND ( 'NONE', #212, .T. ) ;
#58 = LINE ( 'NONE', #106, #228 ) ;
#59 = APPROVAL_ROLE ( '' ) ;
#60 = APPROVAL_PERSON_ORGANIZATION ( #63, #114, #143 ) ;
#61 = PRODUCT ( '900003', '900003', '', ( #25 ) ) ;
#62 = COORDINATED_UNIVERSAL_TIME_OFFSET ( 8, 0, .AHEAD. ) ;
#63 = PERSON_AND_ORGANIZATION ( #67, #146 ) ;
#64 = CARTESIAN_POINT ( 'NONE',  ( -12.49999999999999822, -12.50000000000000178, 0.000000000000000000 ) ) ;
#65 = ORIENTED_EDGE ( 'NONE', *, *, #102, .T. ) ;
#66 = CARTESIAN_POINT ( 'NONE',  ( 12.49999999999999822, 12.49999999999999822, 0.000000000000000000 ) ) ;
#67 = PERSON ( 'Î´Ö¸¶¨', 'Î´Ö¸¶¨', 'Î´Ö¸¶¨', ('Î´Ö¸¶¨'), ('Î´Ö¸¶¨'), ('Î´Ö¸¶¨') ) ;
#68 = ORIENTED_EDGE ( 'NONE', *, *, #91, .F. ) ;
#69 = LINE ( 'NONE', #132, #14 ) ;
#70 = VECTOR ( 'NONE', #142, 1000.000000000000000 ) ;
#71 = FACE_OUTER_BOUND ( 'NONE', #17, .T. ) ;
#72 = VECTOR ( 'NONE', #221, 1000.000000000000000 ) ;
#73 = DIRECTION ( 'NONE',  ( 1.387778780781445676E-16, -1.000000000000000000, 0.000000000000000000 ) ) ;
#74 = LINE ( 'NONE', #196, #118 ) ;
#75 = APPROVAL_PERSON_ORGANIZATION ( #227, #155, #47 ) ;
#76 = SHAPE_DEFINITION_REPRESENTATION ( #7, #129 ) ;
#77 = PERSON_AND_ORGANIZATION_ROLE ( 'classification_officer' ) ;
#78 = VERTEX_POINT ( 'NONE', #64 ) ;
#79 = APPROVAL_DATE_TIME ( #145, #114 ) ;
#80 = ADVANCED_FACE ( 'NONE', ( #152 ), #156, .F. ) ;
#81 = DIRECTION ( 'NONE',  ( 1.000000000000000000, 0.000000000000000000, 0.000000000000000000 ) ) ;
#82 = ORIENTED_EDGE ( 'NONE', *, *, #40, .T. ) ;
#83 = CARTESIAN_POINT ( 'NONE',  ( 0.000000000000000000, 0.000000000000000000, 0.000000000000000000 ) ) ;
#84 = CARTESIAN_POINT ( 'NONE',  ( -12.50000000000000178, 12.49999999999999822, 0.000000000000000000 ) ) ;
#85 = PLANE ( 'NONE',  #131 ) ;
#86 = LOCAL_TIME ( 14, 24, 47.00000000000000000, #203 ) ;
#87 = CARTESIAN_POINT ( 'NONE',  ( 12.49999999999999822, 12.49999999999999822, 2.299999999999999822 ) ) ;
#88 = CARTESIAN_POINT ( 'NONE',  ( -12.49999999999999822, -12.50000000000000178, 2.299999999999999822 ) ) ;
#89 = CARTESIAN_POINT ( 'NONE',  ( 12.50000000000000178, -12.50000000000000178, 0.000000000000000000 ) ) ;
#90 = LINE ( 'NONE', #87, #115 ) ;
#91 = EDGE_CURVE ( 'NONE', #174, #154, #188, .T. ) ;
#92 = PERSON_AND_ORGANIZATION_ROLE ( 'design_owner' ) ;
#93 = LINE ( 'NONE', #230, #2 ) ;
#94 = PERSON_AND_ORGANIZATION ( #67, #146 ) ;
#95 = SECURITY_CLASSIFICATION ( '', '', #27 ) ;
#96 = ORIENTED_EDGE ( 'NONE', *, *, #141, .F. ) ;
#97 = PLANE ( 'NONE',  #184 ) ;
#98 = EDGE_CURVE ( 'NONE', #78, #154, #93, .T. ) ;
#99 = EDGE_LOOP ( 'NONE', ( #157, #50, #34, #11 ) ) ;
#100 = CARTESIAN_POINT ( 'NONE',  ( -12.49999999999999822, -12.50000000000000178, 2.299999999999999822 ) ) ;
#101 =( LENGTH_UNIT ( ) NAMED_UNIT ( * ) SI_UNIT ( .MILLI., .METRE. ) );
#102 = EDGE_CURVE ( 'NONE', #112, #78, #192, .T. ) ;
#103 = CARTESIAN_POINT ( 'NONE',  ( -12.50000000000000178, 12.49999999999999822, 2.299999999999999822 ) ) ;
#104 = AXIS2_PLACEMENT_3D ( 'NONE', #24, #195, #200 ) ;
#105 = DIRECTION ( 'NONE',  ( 1.387778780781445676E-16, -1.000000000000000000, 0.000000000000000000 ) ) ;
#106 = CARTESIAN_POINT ( 'NONE',  ( -12.50000000000000178, 12.49999999999999822, 2.299999999999999822 ) ) ;
#107 = CALENDAR_DATE ( 2025, 14, 10 ) ;
#108 = APPROVAL_DATE_TIME ( #205, #3 ) ;
#109 = EDGE_CURVE ( 'NONE', #172, #174, #36, .T. ) ;
#110 = EDGE_LOOP ( 'NONE', ( #182, #233, #190, #134 ) ) ;
#111 = DATE_AND_TIME ( #113, #38 ) ;
#112 = VERTEX_POINT ( 'NONE', #84 ) ;
#113 = CALENDAR_DATE ( 2025, 14, 10 ) ;
#114 = APPROVAL ( #130, 'Î´Ö¸¶¨' ) ;
#115 = VECTOR ( 'NONE', #56, 1000.000000000000000 ) ;
#116 = FACE_OUTER_BOUND ( 'NONE', #110, .T. ) ;
#117 = EDGE_CURVE ( 'NONE', #54, #112, #39, .T. ) ;
#118 = VECTOR ( 'NONE', #122, 1000.000000000000000 ) ;
#119 = DIRECTION ( 'NONE',  ( -0.000000000000000000, 0.000000000000000000, 1.000000000000000000 ) ) ;
#120 = LINE ( 'NONE', #103, #125 ) ;
#121 = EDGE_CURVE ( 'NONE', #173, #112, #58, .T. ) ;
#122 = DIRECTION ( 'NONE',  ( -1.387778780781445676E-16, 1.000000000000000000, -0.000000000000000000 ) ) ;
#123 = CARTESIAN_POINT ( 'NONE',  ( -12.50000000000000178, 12.49999999999999822, 2.299999999999999822 ) ) ;
#124 = APPROVAL_DATE_TIME ( #111, #155 ) ;
#125 = VECTOR ( 'NONE', #105, 1000.000000000000000 ) ;
#126 = ORIENTED_EDGE ( 'NONE', *, *, #207, .F. ) ;
#127 = EDGE_CURVE ( 'NONE', #172, #78, #219, .T. ) ;
#128 = PERSON_AND_ORGANIZATION_ROLE ( 'creator' ) ;
#129 = ADVANCED_BREP_SHAPE_REPRESENTATION ( '900003', ( #229, #177 ), #133 ) ;
#130 = APPROVAL_STATUS ( 'not_yet_approved' ) ;
#131 = AXIS2_PLACEMENT_3D ( 'NONE', #139, #140, #178 ) ;
#132 = CARTESIAN_POINT ( 'NONE',  ( 12.49999999999999822, 12.49999999999999822, 0.000000000000000000 ) ) ;
#133 =( GEOMETRIC_REPRESENTATION_CONTEXT ( 3 ) GLOBAL_UNCERTAINTY_ASSIGNED_CONTEXT ( ( #18 ) ) GLOBAL_UNIT_ASSIGNED_CONTEXT ( ( #101, #220, #4 ) ) REPRESENTATION_CONTEXT ( 'NONE', 'WORKASPACE' ) );
#134 = ORIENTED_EDGE ( 'NONE', *, *, #109, .T. ) ;
#135 = CARTESIAN_POINT ( 'NONE',  ( 12.50000000000000178, -12.50000000000000178, 2.299999999999999822 ) ) ;
#136 = ORIENTED_EDGE ( 'NONE', *, *, #109, .F. ) ;
#137 = VECTOR ( 'NONE', #19, 1000.000000000000000 ) ;
#138 = EDGE_LOOP ( 'NONE', ( #65, #52, #55, #48 ) ) ;
#139 = CARTESIAN_POINT ( 'NONE',  ( -12.50000000000000178, 12.49999999999999822, 2.299999999999999822 ) ) ;
#140 = DIRECTION ( 'NONE',  ( 1.000000000000000000, 1.387778780781445676E-16, -0.000000000000000000 ) ) ;
#141 = EDGE_CURVE ( 'NONE', #174, #30, #74, .T. ) ;
#142 = DIRECTION ( 'NONE',  ( -1.000000000000000000, -0.000000000000000000, -0.000000000000000000 ) ) ;
#143 = APPROVAL_ROLE ( '' ) ;
#144 = ORIENTED_EDGE ( 'NONE', *, *, #198, .F. ) ;
#145 = DATE_AND_TIME ( #189, #211 ) ;
#146 = ORGANIZATION ( 'Î´Ö¸¶¨', 'Î´Ö¸¶¨', '' ) ;
#147 = CARTESIAN_POINT ( 'NONE',  ( 0.000000000000000000, 0.000000000000000000, 0.000000000000000000 ) ) ;
#148 = APPLICATION_CONTEXT ( 'configuration controlled 3d designs of mechanical parts and assemblies' ) ;
#149 = ORIENTED_EDGE ( 'NONE', *, *, #117, .T. ) ;
#150 = APPLICATION_PROTOCOL_DEFINITION ( 'international standard', 'config_control_design', 1994, #148 ) ;
#151 = ADVANCED_FACE ( 'NONE', ( #179 ), #85, .F. ) ;
#152 = FACE_OUTER_BOUND ( 'NONE', #99, .T. ) ;
#153 = ADVANCED_FACE ( 'NONE', ( #159 ), #41, .F. ) ;
#154 = VERTEX_POINT ( 'NONE', #89 ) ;
#155 = APPROVAL ( #29, 'Î´Ö¸¶¨' ) ;
#156 = PLANE ( 'NONE',  #193 ) ;
#157 = ORIENTED_EDGE ( 'NONE', *, *, #40, .F. ) ;
#158 = CC_DESIGN_APPROVAL ( #3, ( #204 ) ) ;
#159 = FACE_OUTER_BOUND ( 'NONE', #35, .T. ) ;
#160 = LINE ( 'NONE', #37, #70 ) ;
#161 = DIRECTION ( 'NONE',  ( 0.000000000000000000, 1.000000000000000000, 0.000000000000000000 ) ) ;
#162 = PLANE ( 'NONE',  #170 ) ;
#163 = APPROVAL_STATUS ( 'not_yet_approved' ) ;
#164 = COORDINATED_UNIVERSAL_TIME_OFFSET ( 8, 0, .AHEAD. ) ;
#165 = ORIENTED_EDGE ( 'NONE', *, *, #98, .T. ) ;
#166 = CC_DESIGN_DATE_AND_TIME_ASSIGNMENT ( #10, #168, ( #53 ) ) ;
#167 = DATE_AND_TIME ( #46, #235 ) ;
#168 = DATE_TIME_ROLE ( 'creation_date' ) ;
#169 = VECTOR ( 'NONE', #234, 1000.000000000000000 ) ;
#170 = AXIS2_PLACEMENT_3D ( 'NONE', #5, #161, #1 ) ;
#171 = CC_DESIGN_APPROVAL ( #114, ( #95 ) ) ;
#172 = VERTEX_POINT ( 'NONE', #88 ) ;
#173 = VERTEX_POINT ( 'NONE', #123 ) ;
#174 = VERTEX_POINT ( 'NONE', #216 ) ;
#175 = CC_DESIGN_DATE_AND_TIME_ASSIGNMENT ( #167, #9, ( #95 ) ) ;
#176 = ORIENTED_EDGE ( 'NONE', *, *, #127, .T. ) ;
#177 = AXIS2_PLACEMENT_3D ( 'NONE', #147, #32, #51 ) ;
#178 = DIRECTION ( 'NONE',  ( -1.387778780781445676E-16, 1.000000000000000000, 0.000000000000000000 ) ) ;
#179 = FACE_OUTER_BOUND ( 'NONE', #138, .T. ) ;
#180 = ADVANCED_FACE ( 'NONE', ( #71 ), #199, .F. ) ;
#181 = CARTESIAN_POINT ( 'NONE',  ( -12.49999999999999822, -12.50000000000000178, 2.299999999999999822 ) ) ;
#182 = ORIENTED_EDGE ( 'NONE', *, *, #141, .T. ) ;
#183 = APPLICATION_CONTEXT ( 'configuration controlled 3d designs of mechanical parts and assemblies' ) ;
#184 = AXIS2_PLACEMENT_3D ( 'NONE', #16, #119, #231 ) ;
#185 = DIRECTION ( 'NONE',  ( -0.000000000000000000, -0.000000000000000000, -1.000000000000000000 ) ) ;
#186 = CALENDAR_DATE ( 2025, 14, 10 ) ;
#187 = PERSON_AND_ORGANIZATION_ROLE ( 'design_supplier' ) ;
#188 = LINE ( 'NONE', #135, #169 ) ;
#189 = CALENDAR_DATE ( 2025, 14, 10 ) ;
#190 = ORIENTED_EDGE ( 'NONE', *, *, #197, .T. ) ;
#191 = ORIENTED_EDGE ( 'NONE', *, *, #121, .F. ) ;
#192 = LINE ( 'NONE', #226, #43 ) ;
#193 = AXIS2_PLACEMENT_3D ( 'NONE', #83, #15, #81 ) ;
#194 = DIRECTION ( 'NONE',  ( 1.387778780781445676E-16, -1.000000000000000000, 0.000000000000000000 ) ) ;
#195 = DIRECTION ( 'NONE',  ( 0.000000000000000000, -1.000000000000000000, 0.000000000000000000 ) ) ;
#196 = CARTESIAN_POINT ( 'NONE',  ( 12.49999999999999822, 12.49999999999999822, 2.299999999999999822 ) ) ;
#197 = EDGE_CURVE ( 'NONE', #173, #172, #120, .T. ) ;
#198 = EDGE_CURVE ( 'NONE', #30, #54, #90, .T. ) ;
#199 = PLANE ( 'NONE',  #104 ) ;
#200 = DIRECTION ( 'NONE',  ( 0.000000000000000000, -0.000000000000000000, -1.000000000000000000 ) ) ;
#201 = CC_DESIGN_PERSON_AND_ORGANIZATION_ASSIGNMENT ( #94, #206, ( #204 ) ) ;
#202 = CLOSED_SHELL ( 'NONE', ( #153, #180, #151, #224, #8, #80 ) ) ;
#203 = COORDINATED_UNIVERSAL_TIME_OFFSET ( 8, 0, .AHEAD. ) ;
#204 = PRODUCT_DEFINITION_FORMATION_WITH_SPECIFIED_SOURCE ( 'ÈÎºÎ', '', #61, .NOT_KNOWN. ) ;
#205 = DATE_AND_TIME ( #107, #86 ) ;
#206 = PERSON_AND_ORGANIZATION_ROLE ( 'creator' ) ;
#207 = EDGE_CURVE ( 'NONE', #30, #173, #160, .T. ) ;
#208 = PERSON_AND_ORGANIZATION ( #67, #146 ) ;
#209 = VECTOR ( 'NONE', #20, 1000.000000000000000 ) ;
#210 = DIRECTION ( 'NONE',  ( -1.387778780781445676E-16, 1.000000000000000000, -0.000000000000000000 ) ) ;
#211 = LOCAL_TIME ( 14, 24, 47.00000000000000000, #49 ) ;
#212 = EDGE_LOOP ( 'NONE', ( #165, #68, #136, #176 ) ) ;
#213 = PRODUCT_RELATED_PRODUCT_CATEGORY ( 'detail', '', ( #61 ) ) ;
#214 = DIRECTION ( 'NONE',  ( 1.000000000000000000, 0.000000000000000000, 0.000000000000000000 ) ) ;
#215 = ORIENTED_EDGE ( 'NONE', *, *, #198, .T. ) ;
#216 = CARTESIAN_POINT ( 'NONE',  ( 12.50000000000000178, -12.50000000000000178, 2.299999999999999822 ) ) ;
#217 = CC_DESIGN_SECURITY_CLASSIFICATION ( #95, ( #204 ) ) ;
#218 = APPLICATION_PROTOCOL_DEFINITION ( 'international standard', 'config_control_design', 1994, #183 ) ;
#219 = LINE ( 'NONE', #181, #209 ) ;
#220 =( NAMED_UNIT ( * ) PLANE_ANGLE_UNIT ( ) SI_UNIT ( $, .RADIAN. ) );
#221 = DIRECTION ( 'NONE',  ( -1.000000000000000000, -0.000000000000000000, -0.000000000000000000 ) ) ;
#222 = CC_DESIGN_PERSON_AND_ORGANIZATION_ASSIGNMENT ( #208, #77, ( #95 ) ) ;
#223 = LOCAL_TIME ( 14, 24, 47.00000000000000000, #164 ) ;
#224 = ADVANCED_FACE ( 'NONE', ( #57 ), #162, .F. ) ;
#225 = COORDINATED_UNIVERSAL_TIME_OFFSET ( 8, 0, .AHEAD. ) ;
#226 = CARTESIAN_POINT ( 'NONE',  ( -12.50000000000000178, 12.49999999999999822, 0.000000000000000000 ) ) ;
#227 = PERSON_AND_ORGANIZATION ( #67, #146 ) ;
#228 = VECTOR ( 'NONE', #185, 1000.000000000000000 ) ;
#229 = MANIFOLD_SOLID_BREP ( 'Í¹Ì¨-À­Éì1', #202 ) ;
#230 = CARTESIAN_POINT ( 'NONE',  ( -12.49999999999999822, -12.50000000000000178, 0.000000000000000000 ) ) ;
#231 = DIRECTION ( 'NONE',  ( 1.000000000000000000, 0.000000000000000000, 0.000000000000000000 ) ) ;
#232 = DESIGN_CONTEXT ( 'detailed design', #148, 'design' ) ;
#233 = ORIENTED_EDGE ( 'NONE', *, *, #207, .T. ) ;
#234 = DIRECTION ( 'NONE',  ( -0.000000000000000000, -0.000000000000000000, -1.000000000000000000 ) ) ;
#235 = LOCAL_TIME ( 14, 24, 47.00000000000000000, #225 ) ;
#236 = CARTESIAN_POINT ( 'NONE',  ( 12.49999999999999822, 12.49999999999999822, 2.299999999999999822 ) ) ;
#237 = DIRECTION ( 'NONE',  ( -1.000000000000000000, -1.387778780781445676E-16, 0.000000000000000000 ) ) ;
ENDSEC;
END-ISO-10303-21;
