ISO-10303-21;
HEADER;
FILE_DESCRIPTION (( 'STEP AP203' ),
    '1' );
FILE_NAME ('900004.STEP',
    '2025-10-14T06:19:49',
    ( 'Windows User' ),
    ( 'P R C' ),
    'SwSTEP 2.0',
    'SolidWorks 2020',
    '' );
FILE_SCHEMA (( 'CONFIG_CONTROL_DESIGN' ));
ENDSEC;

DATA;
#1 = VECTOR ( 'NONE', #191, 1000.000000000000000 ) ;
#2 = VERTEX_POINT ( 'NONE', #233 ) ;
#3 = APPROVAL_PERSON_ORGANIZATION ( #226, #83, #36 ) ;
#4 = ORIENTED_EDGE ( 'NONE', *, *, #177, .F. ) ;
#5 = DIRECTION ( 'NONE',  ( 1.000000000000000000, 0.000000000000000000, 0.000000000000000000 ) ) ;
#6 = LINE ( 'NONE', #137, #91 ) ;
#7 = PERSON_AND_ORGANIZATION ( #160, #213 ) ;
#8 = ADVANCED_FACE ( 'NONE', ( #198 ), #104, .F. ) ;
#9 = FACE_OUTER_BOUND ( 'NONE', #130, .T. ) ;
#10 = CARTESIAN_POINT ( 'NONE',  ( 25.00000000000000000, 24.99999999999999645, 0.000000000000000000 ) ) ;
#11 = DIRECTION ( 'NONE',  ( 0.000000000000000000, 1.000000000000000000, 0.000000000000000000 ) ) ;
#12 = DIRECTION ( 'NONE',  ( -0.000000000000000000, 0.000000000000000000, 1.000000000000000000 ) ) ;
#13 = EDGE_LOOP ( 'NONE', ( #4, #208, #229, #123 ) ) ;
#14 = EDGE_CURVE ( 'NONE', #175, #188, #70, .T. ) ;
#15 = CALENDAR_DATE ( 2025, 14, 10 ) ;
#16 = CALENDAR_DATE ( 2025, 14, 10 ) ;
#17 = APPROVAL_ROLE ( '' ) ;
#18 = SHAPE_DEFINITION_REPRESENTATION ( #34, #51 ) ;
#19 = FACE_OUTER_BOUND ( 'NONE', #13, .T. ) ;
#20 = AXIS2_PLACEMENT_3D ( 'NONE', #57, #23, #101 ) ;
#21 = CARTESIAN_POINT ( 'NONE',  ( -25.00000000000000000, 24.99999999999999645, 2.299999999999999822 ) ) ;
#22 = EDGE_CURVE ( 'NONE', #44, #159, #31, .T. ) ;
#23 = DIRECTION ( 'NONE',  ( -0.000000000000000000, 0.000000000000000000, 1.000000000000000000 ) ) ;
#24 = VECTOR ( 'NONE', #151, 1000.000000000000000 ) ;
#25 = ORIENTED_EDGE ( 'NONE', *, *, #136, .T. ) ;
#26 = ORIENTED_EDGE ( 'NONE', *, *, #126, .T. ) ;
#27 = LINE ( 'NONE', #143, #156 ) ;
#28 = CC_DESIGN_DATE_AND_TIME_ASSIGNMENT ( #171, #114, ( #87 ) ) ;
#29 = ORIENTED_EDGE ( 'NONE', *, *, #14, .T. ) ;
#30 = DATE_AND_TIME ( #16, #107 ) ;
#31 = LINE ( 'NONE', #145, #132 ) ;
#32 = LOCAL_TIME ( 14, 19, 49.00000000000000000, #62 ) ;
#33 = PERSON_AND_ORGANIZATION ( #160, #213 ) ;
#34 = PRODUCT_DEFINITION_SHAPE ( 'NONE', 'NONE',  #78 ) ;
#35 = PERSON_AND_ORGANIZATION ( #160, #213 ) ;
#36 = APPROVAL_ROLE ( '' ) ;
#37 = ORIENTED_EDGE ( 'NONE', *, *, #118, .F. ) ;
#38 = CARTESIAN_POINT ( 'NONE',  ( -25.00000000000000000, 24.99999999999999645, 2.299999999999999822 ) ) ;
#39 = ADVANCED_FACE ( 'NONE', ( #180 ), #125, .T. ) ;
#40 = DIRECTION ( 'NONE',  ( -1.000000000000000000, -1.387778780781445676E-16, 0.000000000000000000 ) ) ;
#41 = PLANE ( 'NONE',  #227 ) ;
#42 = CC_DESIGN_PERSON_AND_ORGANIZATION_ASSIGNMENT ( #185, #98, ( #120 ) ) ;
#43 = CARTESIAN_POINT ( 'NONE',  ( -25.00000000000000000, 24.99999999999999645, 2.299999999999999822 ) ) ;
#44 = VERTEX_POINT ( 'NONE', #163 ) ;
#45 = ORIENTED_EDGE ( 'NONE', *, *, #22, .F. ) ;
#46 = CC_DESIGN_PERSON_AND_ORGANIZATION_ASSIGNMENT ( #7, #134, ( #87 ) ) ;
#47 = EDGE_LOOP ( 'NONE', ( #55, #124, #199, #217 ) ) ;
#48 = EDGE_CURVE ( 'NONE', #175, #142, #201, .T. ) ;
#49 = DIRECTION ( 'NONE',  ( -0.000000000000000000, -0.000000000000000000, -1.000000000000000000 ) ) ;
#50 = DIRECTION ( 'NONE',  ( 1.000000000000000000, 0.000000000000000000, 0.000000000000000000 ) ) ;
#51 = ADVANCED_BREP_SHAPE_REPRESENTATION ( '900004', ( #149, #236 ), #97 ) ;
#52 =( NAMED_UNIT ( * ) PLANE_ANGLE_UNIT ( ) SI_UNIT ( $, .RADIAN. ) );
#53 = DATE_AND_TIME ( #15, #92 ) ;
#54 = CC_DESIGN_SECURITY_CLASSIFICATION ( #87, ( #120 ) ) ;
#55 = ORIENTED_EDGE ( 'NONE', *, *, #197, .T. ) ;
#56 = FACE_OUTER_BOUND ( 'NONE', #182, .T. ) ;
#57 = CARTESIAN_POINT ( 'NONE',  ( 0.000000000000000000, 0.000000000000000000, 0.000000000000000000 ) ) ;
#58 = AXIS2_PLACEMENT_3D ( 'NONE', #131, #210, #153 ) ;
#59 = CALENDAR_DATE ( 2025, 14, 10 ) ;
#60 = CC_DESIGN_APPROVAL ( #189, ( #78 ) ) ;
#61 = LINE ( 'NONE', #170, #206 ) ;
#62 = COORDINATED_UNIVERSAL_TIME_OFFSET ( 8, 0, .AHEAD. ) ;
#63 = DIRECTION ( 'NONE',  ( 1.387778780781445676E-16, -1.000000000000000000, 0.000000000000000000 ) ) ;
#64 = EDGE_CURVE ( 'NONE', #219, #175, #140, .T. ) ;
#65 = DIRECTION ( 'NONE',  ( -1.387778780781445676E-16, 1.000000000000000000, -0.000000000000000000 ) ) ;
#66 = ORIENTED_EDGE ( 'NONE', *, *, #126, .F. ) ;
#67 = AXIS2_PLACEMENT_3D ( 'NONE', #38, #119, #133 ) ;
#68 = DIRECTION ( 'NONE',  ( -0.000000000000000000, -0.000000000000000000, -1.000000000000000000 ) ) ;
#69 = PERSON_AND_ORGANIZATION ( #160, #213 ) ;
#70 = LINE ( 'NONE', #105, #174 ) ;
#71 = CARTESIAN_POINT ( 'NONE',  ( -25.00000000000000000, 24.99999999999999645, 2.299999999999999822 ) ) ;
#72 = DATE_TIME_ROLE ( 'creation_date' ) ;
#73 = AXIS2_PLACEMENT_3D ( 'NONE', #179, #11, #90 ) ;
#74 = PRODUCT ( '900004', '900004', '', ( #183 ) ) ;
#75 = COORDINATED_UNIVERSAL_TIME_OFFSET ( 8, 0, .AHEAD. ) ;
#76 = APPROVAL_DATE_TIME ( #166, #83 ) ;
#77 = EDGE_LOOP ( 'NONE', ( #25, #207, #193, #29 ) ) ;
#78 = PRODUCT_DEFINITION ( 'Î´Öª', '', #120, #194 ) ;
#79 = CARTESIAN_POINT ( 'NONE',  ( -25.00000000000000000, 24.99999999999999645, 0.000000000000000000 ) ) ;
#80 = APPROVAL_STATUS ( 'not_yet_approved' ) ;
#81 = VECTOR ( 'NONE', #94, 1000.000000000000000 ) ;
#82 = COORDINATED_UNIVERSAL_TIME_OFFSET ( 8, 0, .AHEAD. ) ;
#83 = APPROVAL ( #80, 'Î´Ö¸¶¨' ) ;
#84 = LINE ( 'NONE', #116, #1 ) ;
#85 = ORIENTED_EDGE ( 'NONE', *, *, #197, .F. ) ;
#86 = CARTESIAN_POINT ( 'NONE',  ( -24.99999999999999289, -25.00000000000000355, 0.000000000000000000 ) ) ;
#87 = SECURITY_CLASSIFICATION ( '', '', #129 ) ;
#88 = ADVANCED_FACE ( 'NONE', ( #56 ), #139, .F. ) ;
#89 = DIRECTION ( 'NONE',  ( -0.000000000000000000, -0.000000000000000000, -1.000000000000000000 ) ) ;
#90 = DIRECTION ( 'NONE',  ( 0.000000000000000000, -0.000000000000000000, 1.000000000000000000 ) ) ;
#91 = VECTOR ( 'NONE', #178, 1000.000000000000000 ) ;
#92 = LOCAL_TIME ( 14, 19, 49.00000000000000000, #148 ) ;
#93 = DIRECTION ( 'NONE',  ( 1.000000000000000000, 0.000000000000000000, 0.000000000000000000 ) ) ;
#94 = DIRECTION ( 'NONE',  ( 1.000000000000000000, 0.000000000000000000, 0.000000000000000000 ) ) ;
#95 = APPROVAL_ROLE ( '' ) ;
#96 = VECTOR ( 'NONE', #89, 1000.000000000000000 ) ;
#97 =( GEOMETRIC_REPRESENTATION_CONTEXT ( 3 ) GLOBAL_UNCERTAINTY_ASSIGNED_CONTEXT ( ( #154 ) ) GLOBAL_UNIT_ASSIGNED_CONTEXT ( ( #147, #52, #190 ) ) REPRESENTATION_CONTEXT ( 'NONE', 'WORKASPACE' ) );
#98 = PERSON_AND_ORGANIZATION_ROLE ( 'design_supplier' ) ;
#99 = VECTOR ( 'NONE', #65, 1000.000000000000000 ) ;
#100 = CARTESIAN_POINT ( 'NONE',  ( 25.00000000000000000, 24.99999999999999645, 2.299999999999999822 ) ) ;
#101 = DIRECTION ( 'NONE',  ( 1.000000000000000000, 0.000000000000000000, 0.000000000000000000 ) ) ;
#102 = ADVANCED_FACE ( 'NONE', ( #212 ), #41, .F. ) ;
#103 = CLOSED_SHELL ( 'NONE', ( #102, #109, #88, #8, #39, #158 ) ) ;
#104 = PLANE ( 'NONE',  #73 ) ;
#105 = CARTESIAN_POINT ( 'NONE',  ( -24.99999999999999289, -25.00000000000000355, 2.299999999999999822 ) ) ;
#106 = PERSON_AND_ORGANIZATION ( #160, #213 ) ;
#107 = LOCAL_TIME ( 14, 19, 49.00000000000000000, #205 ) ;
#108 = CARTESIAN_POINT ( 'NONE',  ( -24.99999999999999289, -25.00000000000000355, 2.299999999999999822 ) ) ;
#109 = ADVANCED_FACE ( 'NONE', ( #9 ), #225, .F. ) ;
#110 = APPLICATION_CONTEXT ( 'configuration controlled 3d designs of mechanical parts and assemblies' ) ;
#111 = PERSON_AND_ORGANIZATION_ROLE ( 'creator' ) ;
#112 = PERSON_AND_ORGANIZATION ( #160, #213 ) ;
#113 = ORIENTED_EDGE ( 'NONE', *, *, #152, .T. ) ;
#114 = DATE_TIME_ROLE ( 'classification_date' ) ;
#115 = ORIENTED_EDGE ( 'NONE', *, *, #64, .F. ) ;
#116 = CARTESIAN_POINT ( 'NONE',  ( -25.00000000000000000, 24.99999999999999645, 2.299999999999999822 ) ) ;
#117 = DIRECTION ( 'NONE',  ( -0.000000000000000000, -0.000000000000000000, -1.000000000000000000 ) ) ;
#118 = EDGE_CURVE ( 'NONE', #44, #219, #84, .T. ) ;
#119 = DIRECTION ( 'NONE',  ( 0.000000000000000000, -1.000000000000000000, 0.000000000000000000 ) ) ;
#120 = PRODUCT_DEFINITION_FORMATION_WITH_SPECIFIED_SOURCE ( 'ÈÎºÎ', '', #74, .NOT_KNOWN. ) ;
#121 = LINE ( 'NONE', #21, #231 ) ;
#122 = CC_DESIGN_PERSON_AND_ORGANIZATION_ASSIGNMENT ( #33, #220, ( #74 ) ) ;
#123 = ORIENTED_EDGE ( 'NONE', *, *, #152, .F. ) ;
#124 = ORIENTED_EDGE ( 'NONE', *, *, #118, .T. ) ;
#125 = PLANE ( 'NONE',  #211 ) ;
#126 = EDGE_CURVE ( 'NONE', #219, #209, #121, .T. ) ;
#127 = PERSON_AND_ORGANIZATION_ROLE ( 'creator' ) ;
#128 = ORIENTED_EDGE ( 'NONE', *, *, #169, .T. ) ;
#129 = SECURITY_CLASSIFICATION_LEVEL ( 'unclassified' ) ;
#130 = EDGE_LOOP ( 'NONE', ( #113, #66, #37, #168 ) ) ;
#131 = CARTESIAN_POINT ( 'NONE',  ( -25.00000000000000000, 24.99999999999999645, 2.299999999999999822 ) ) ;
#132 = VECTOR ( 'NONE', #49, 1000.000000000000000 ) ;
#133 = DIRECTION ( 'NONE',  ( 0.000000000000000000, -0.000000000000000000, -1.000000000000000000 ) ) ;
#134 = PERSON_AND_ORGANIZATION_ROLE ( 'classification_officer' ) ;
#135 = CC_DESIGN_DATE_AND_TIME_ASSIGNMENT ( #30, #72, ( #78 ) ) ;
#136 = EDGE_CURVE ( 'NONE', #188, #2, #61, .T. ) ;
#137 = CARTESIAN_POINT ( 'NONE',  ( -25.00000000000000000, 24.99999999999999645, 0.000000000000000000 ) ) ;
#138 = CALENDAR_DATE ( 2025, 14, 10 ) ;
#139 = PLANE ( 'NONE',  #58 ) ;
#140 = LINE ( 'NONE', #43, #150 ) ;
#141 = LOCAL_TIME ( 14, 19, 49.00000000000000000, #75 ) ;
#142 = VERTEX_POINT ( 'NONE', #155 ) ;
#143 = CARTESIAN_POINT ( 'NONE',  ( 25.00000000000000000, 24.99999999999999645, 2.299999999999999822 ) ) ;
#144 = LINE ( 'NONE', #176, #96 ) ;
#145 = CARTESIAN_POINT ( 'NONE',  ( 25.00000000000000000, 24.99999999999999645, 2.299999999999999822 ) ) ;
#146 = CARTESIAN_POINT ( 'NONE',  ( 0.000000000000000000, 0.000000000000000000, 2.299999999999999822 ) ) ;
#147 =( LENGTH_UNIT ( ) NAMED_UNIT ( * ) SI_UNIT ( .MILLI., .METRE. ) );
#148 = COORDINATED_UNIVERSAL_TIME_OFFSET ( 8, 0, .AHEAD. ) ;
#149 = MANIFOLD_SOLID_BREP ( 'Í¹Ì¨-À­Éì1', #103 ) ;
#150 = VECTOR ( 'NONE', #63, 1000.000000000000000 ) ;
#151 = DIRECTION ( 'NONE',  ( -1.000000000000000000, -0.000000000000000000, -0.000000000000000000 ) ) ;
#152 = EDGE_CURVE ( 'NONE', #159, #209, #192, .T. ) ;
#153 = DIRECTION ( 'NONE',  ( -1.387778780781445676E-16, 1.000000000000000000, 0.000000000000000000 ) ) ;
#154 = UNCERTAINTY_MEASURE_WITH_UNIT (LENGTH_MEASURE( 1.000000000000000082E-05 ), #147, 'distance_accuracy_value', 'NONE');
#155 = CARTESIAN_POINT ( 'NONE',  ( 25.00000000000000711, -25.00000000000000355, 2.299999999999999822 ) ) ;
#156 = VECTOR ( 'NONE', #234, 1000.000000000000000 ) ;
#157 = EDGE_LOOP ( 'NONE', ( #195, #45, #85, #128 ) ) ;
#158 = ADVANCED_FACE ( 'NONE', ( #19 ), #224, .F. ) ;
#159 = VERTEX_POINT ( 'NONE', #173 ) ;
#160 = PERSON ( 'Î´Ö¸¶¨', 'Î´Ö¸¶¨', 'Î´Ö¸¶¨', ('Î´Ö¸¶¨'), ('Î´Ö¸¶¨'), ('Î´Ö¸¶¨') ) ;
#161 = CC_DESIGN_APPROVAL ( #83, ( #87 ) ) ;
#162 = APPROVAL_DATE_TIME ( #53, #216 ) ;
#163 = CARTESIAN_POINT ( 'NONE',  ( 25.00000000000000000, 24.99999999999999645, 2.299999999999999822 ) ) ;
#164 = EDGE_CURVE ( 'NONE', #209, #188, #6, .T. ) ;
#165 = APPROVAL_PERSON_ORGANIZATION ( #112, #189, #95 ) ;
#166 = DATE_AND_TIME ( #138, #32 ) ;
#167 = ORIENTED_EDGE ( 'NONE', *, *, #14, .F. ) ;
#168 = ORIENTED_EDGE ( 'NONE', *, *, #22, .T. ) ;
#169 = EDGE_CURVE ( 'NONE', #142, #2, #144, .T. ) ;
#170 = CARTESIAN_POINT ( 'NONE',  ( -24.99999999999999289, -25.00000000000000355, 0.000000000000000000 ) ) ;
#171 = DATE_AND_TIME ( #59, #221 ) ;
#172 = APPLICATION_CONTEXT ( 'configuration controlled 3d designs of mechanical parts and assemblies' ) ;
#173 = CARTESIAN_POINT ( 'NONE',  ( 25.00000000000000000, 24.99999999999999645, 0.000000000000000000 ) ) ;
#174 = VECTOR ( 'NONE', #68, 1000.000000000000000 ) ;
#175 = VERTEX_POINT ( 'NONE', #230 ) ;
#176 = CARTESIAN_POINT ( 'NONE',  ( 25.00000000000000711, -25.00000000000000355, 2.299999999999999822 ) ) ;
#177 = EDGE_CURVE ( 'NONE', #2, #159, #218, .T. ) ;
#178 = DIRECTION ( 'NONE',  ( 1.387778780781445676E-16, -1.000000000000000000, 0.000000000000000000 ) ) ;
#179 = CARTESIAN_POINT ( 'NONE',  ( -24.99999999999999289, -25.00000000000000355, 2.299999999999999822 ) ) ;
#180 = FACE_OUTER_BOUND ( 'NONE', #47, .T. ) ;
#181 = DIRECTION ( 'NONE',  ( 0.000000000000000000, 0.000000000000000000, 1.000000000000000000 ) ) ;
#182 = EDGE_LOOP ( 'NONE', ( #215, #167, #115, #26 ) ) ;
#183 = MECHANICAL_CONTEXT ( 'NONE', #110, 'mechanical' ) ;
#184 = PRODUCT_RELATED_PRODUCT_CATEGORY ( 'detail', '', ( #74 ) ) ;
#185 = PERSON_AND_ORGANIZATION ( #160, #213 ) ;
#186 = APPROVAL_PERSON_ORGANIZATION ( #35, #216, #17 ) ;
#187 = APPROVAL_STATUS ( 'not_yet_approved' ) ;
#188 = VERTEX_POINT ( 'NONE', #86 ) ;
#189 = APPROVAL ( #237, 'Î´Ö¸¶¨' ) ;
#190 =( NAMED_UNIT ( * ) SI_UNIT ( $, .STERADIAN. ) SOLID_ANGLE_UNIT ( ) );
#191 = DIRECTION ( 'NONE',  ( -1.000000000000000000, -0.000000000000000000, -0.000000000000000000 ) ) ;
#192 = LINE ( 'NONE', #79, #24 ) ;
#193 = ORIENTED_EDGE ( 'NONE', *, *, #48, .F. ) ;
#194 = DESIGN_CONTEXT ( 'detailed design', #172, 'design' ) ;
#195 = ORIENTED_EDGE ( 'NONE', *, *, #177, .T. ) ;
#196 = CC_DESIGN_PERSON_AND_ORGANIZATION_ASSIGNMENT ( #106, #111, ( #120 ) ) ;
#197 = EDGE_CURVE ( 'NONE', #142, #44, #27, .T. ) ;
#198 = FACE_OUTER_BOUND ( 'NONE', #77, .T. ) ;
#199 = ORIENTED_EDGE ( 'NONE', *, *, #64, .T. ) ;
#200 = APPROVAL_DATE_TIME ( #235, #189 ) ;
#201 = LINE ( 'NONE', #108, #81 ) ;
#202 = APPLICATION_PROTOCOL_DEFINITION ( 'international standard', 'config_control_design', 1994, #172 ) ;
#203 = APPLICATION_PROTOCOL_DEFINITION ( 'international standard', 'config_control_design', 1994, #110 ) ;
#204 = CARTESIAN_POINT ( 'NONE',  ( -25.00000000000000000, 24.99999999999999645, 0.000000000000000000 ) ) ;
#205 = COORDINATED_UNIVERSAL_TIME_OFFSET ( 8, 0, .AHEAD. ) ;
#206 = VECTOR ( 'NONE', #5, 1000.000000000000000 ) ;
#207 = ORIENTED_EDGE ( 'NONE', *, *, #169, .F. ) ;
#208 = ORIENTED_EDGE ( 'NONE', *, *, #136, .F. ) ;
#209 = VERTEX_POINT ( 'NONE', #204 ) ;
#210 = DIRECTION ( 'NONE',  ( 1.000000000000000000, 1.387778780781445676E-16, -0.000000000000000000 ) ) ;
#211 = AXIS2_PLACEMENT_3D ( 'NONE', #146, #12, #93 ) ;
#212 = FACE_OUTER_BOUND ( 'NONE', #157, .T. ) ;
#213 = ORGANIZATION ( 'Î´Ö¸¶¨', 'Î´Ö¸¶¨', '' ) ;
#214 = DIRECTION ( 'NONE',  ( 1.387778780781445676E-16, -1.000000000000000000, 0.000000000000000000 ) ) ;
#215 = ORIENTED_EDGE ( 'NONE', *, *, #164, .T. ) ;
#216 = APPROVAL ( #187, 'Î´Ö¸¶¨' ) ;
#217 = ORIENTED_EDGE ( 'NONE', *, *, #48, .T. ) ;
#218 = LINE ( 'NONE', #10, #99 ) ;
#219 = VERTEX_POINT ( 'NONE', #71 ) ;
#220 = PERSON_AND_ORGANIZATION_ROLE ( 'design_owner' ) ;
#221 = LOCAL_TIME ( 14, 19, 49.00000000000000000, #82 ) ;
#222 = CARTESIAN_POINT ( 'NONE',  ( 0.000000000000000000, 0.000000000000000000, 0.000000000000000000 ) ) ;
#223 = CC_DESIGN_APPROVAL ( #216, ( #120 ) ) ;
#224 = PLANE ( 'NONE',  #20 ) ;
#225 = PLANE ( 'NONE',  #67 ) ;
#226 = PERSON_AND_ORGANIZATION ( #160, #213 ) ;
#227 = AXIS2_PLACEMENT_3D ( 'NONE', #100, #40, #214 ) ;
#228 = CC_DESIGN_PERSON_AND_ORGANIZATION_ASSIGNMENT ( #69, #127, ( #78 ) ) ;
#229 = ORIENTED_EDGE ( 'NONE', *, *, #164, .F. ) ;
#230 = CARTESIAN_POINT ( 'NONE',  ( -24.99999999999999289, -25.00000000000000355, 2.299999999999999822 ) ) ;
#231 = VECTOR ( 'NONE', #117, 1000.000000000000000 ) ;
#232 = CALENDAR_DATE ( 2025, 14, 10 ) ;
#233 = CARTESIAN_POINT ( 'NONE',  ( 25.00000000000000711, -25.00000000000000355, 0.000000000000000000 ) ) ;
#234 = DIRECTION ( 'NONE',  ( -1.387778780781445676E-16, 1.000000000000000000, -0.000000000000000000 ) ) ;
#235 = DATE_AND_TIME ( #232, #141 ) ;
#236 = AXIS2_PLACEMENT_3D ( 'NONE', #222, #181, #50 ) ;
#237 = APPROVAL_STATUS ( 'not_yet_approved' ) ;
ENDSEC;
END-ISO-10303-21;
