ISO-10303-21;
HEADER;
FILE_DESCRIPTION (( 'STEP AP203' ),
    '1' );
FILE_NAME ('900005.STEP',
    '2025-10-14T06:25:36',
    ( 'Windows User' ),
    ( 'P R C' ),
    'SwSTEP 2.0',
    'SolidWorks 2020',
    '' );
FILE_SCHEMA (( 'CONFIG_CONTROL_DESIGN' ));
ENDSEC;

DATA;
#1 = CARTESIAN_POINT ( 'NONE',  ( 25.00000000000000000, 24.99999999999999645, 2.299999999999999822 ) ) ;
#2 = CARTESIAN_POINT ( 'NONE',  ( -25.00000000000000000, 24.99999999999999645, 2.299999999999999822 ) ) ;
#3 = CARTESIAN_POINT ( 'NONE',  ( -25.00000000000000000, 24.99999999999999645, 2.299999999999999822 ) ) ;
#4 = FACE_OUTER_BOUND ( 'NONE', #68, .T. ) ;
#5 = AXIS2_PLACEMENT_3D ( 'NONE', #92, #33, #153 ) ;
#6 = AXIS2_PLACEMENT_3D ( 'NONE', #1, #171, #151 ) ;
#7 = CARTESIAN_POINT ( 'NONE',  ( 25.00000000000000000, 24.99999999999999645, 2.299999999999999822 ) ) ;
#8 = ADVANCED_FACE ( 'NONE', ( #88 ), #132, .F. ) ;
#9 = DATE_AND_TIME ( #58, #90 ) ;
#10 = ORIENTED_EDGE ( 'NONE', *, *, #46, .F. ) ;
#11 = EDGE_CURVE ( 'NONE', #221, #143, #227, .T. ) ;
#12 = DATE_AND_TIME ( #120, #17 ) ;
#13 = VERTEX_POINT ( 'NONE', #93 ) ;
#14 = CC_DESIGN_SECURITY_CLASSIFICATION ( #75, ( #42 ) ) ;
#15 = DIRECTION ( 'NONE',  ( 0.000000000000000000, -0.000000000000000000, -1.000000000000000000 ) ) ;
#16 = CARTESIAN_POINT ( 'NONE',  ( 25.00000000000000000, 24.99999999999999645, 2.299999999999999822 ) ) ;
#17 = LOCAL_TIME ( 14, 25, 36.00000000000000000, #235 ) ;
#18 = FACE_OUTER_BOUND ( 'NONE', #86, .T. ) ;
#19 = VECTOR ( 'NONE', #73, 1000.000000000000000 ) ;
#20 = CARTESIAN_POINT ( 'NONE',  ( 25.00000000000000000, 24.99999999999999645, 0.000000000000000000 ) ) ;
#21 = CARTESIAN_POINT ( 'NONE',  ( -25.00000000000000000, 24.99999999999999645, 2.299999999999999822 ) ) ;
#22 = DIRECTION ( 'NONE',  ( 0.000000000000000000, -0.000000000000000000, 1.000000000000000000 ) ) ;
#23 = PERSON_AND_ORGANIZATION ( #79, #185 ) ;
#24 = CC_DESIGN_PERSON_AND_ORGANIZATION_ASSIGNMENT ( #214, #218, ( #42 ) ) ;
#25 = CARTESIAN_POINT ( 'NONE',  ( -24.99999999999999289, -25.00000000000000355, 2.299999999999999822 ) ) ;
#26 = PERSON_AND_ORGANIZATION ( #79, #185 ) ;
#27 = PLANE ( 'NONE',  #48 ) ;
#28 = VERTEX_POINT ( 'NONE', #16 ) ;
#29 = ORIENTED_EDGE ( 'NONE', *, *, #162, .F. ) ;
#30 = VERTEX_POINT ( 'NONE', #53 ) ;
#31 = DIRECTION ( 'NONE',  ( -0.000000000000000000, -0.000000000000000000, -1.000000000000000000 ) ) ;
#32 = DIRECTION ( 'NONE',  ( 1.387778780781445676E-16, -1.000000000000000000, 0.000000000000000000 ) ) ;
#33 = DIRECTION ( 'NONE',  ( -0.000000000000000000, 0.000000000000000000, 1.000000000000000000 ) ) ;
#34 = DIRECTION ( 'NONE',  ( -1.387778780781445676E-16, 1.000000000000000000, 0.000000000000000000 ) ) ;
#35 = VECTOR ( 'NONE', #31, 1000.000000000000000 ) ;
#36 = DIRECTION ( 'NONE',  ( -0.000000000000000000, -0.000000000000000000, -1.000000000000000000 ) ) ;
#37 = DIRECTION ( 'NONE',  ( 0.000000000000000000, 0.000000000000000000, 1.000000000000000000 ) ) ;
#38 = ADVANCED_FACE ( 'NONE', ( #72 ), #222, .T. ) ;
#39 = APPROVAL_ROLE ( '' ) ;
#40 = APPROVAL_STATUS ( 'not_yet_approved' ) ;
#41 = DATE_AND_TIME ( #139, #233 ) ;
#42 = PRODUCT_DEFINITION_FORMATION_WITH_SPECIFIED_SOURCE ( 'ÈÎºÎ', '', #102, .NOT_KNOWN. ) ;
#43 = CC_DESIGN_PERSON_AND_ORGANIZATION_ASSIGNMENT ( #49, #181, ( #75 ) ) ;
#44 = SHAPE_DEFINITION_REPRESENTATION ( #66, #236 ) ;
#45 = ORIENTED_EDGE ( 'NONE', *, *, #78, .T. ) ;
#46 = EDGE_CURVE ( 'NONE', #64, #221, #107, .T. ) ;
#47 = APPROVAL_STATUS ( 'not_yet_approved' ) ;
#48 = AXIS2_PLACEMENT_3D ( 'NONE', #231, #208, #232 ) ;
#49 = PERSON_AND_ORGANIZATION ( #79, #185 ) ;
#50 = ORIENTED_EDGE ( 'NONE', *, *, #85, .T. ) ;
#51 = PRODUCT_DEFINITION ( 'Î´Öª', '', #42, #213 ) ;
#52 = APPROVAL_PERSON_ORGANIZATION ( #100, #129, #103 ) ;
#53 = CARTESIAN_POINT ( 'NONE',  ( -25.00000000000000000, 24.99999999999999645, 2.299999999999999822 ) ) ;
#54 = LINE ( 'NONE', #91, #35 ) ;
#55 = CARTESIAN_POINT ( 'NONE',  ( -25.00000000000000000, 24.99999999999999645, 2.299999999999999822 ) ) ;
#56 = LINE ( 'NONE', #89, #19 ) ;
#57 = LINE ( 'NONE', #2, #123 ) ;
#58 = CALENDAR_DATE ( 2025, 14, 10 ) ;
#59 = VECTOR ( 'NONE', #148, 1000.000000000000000 ) ;
#60 = COORDINATED_UNIVERSAL_TIME_OFFSET ( 8, 0, .AHEAD. ) ;
#61 = ADVANCED_FACE ( 'NONE', ( #190 ), #173, .F. ) ;
#62 =( NAMED_UNIT ( * ) PLANE_ANGLE_UNIT ( ) SI_UNIT ( $, .RADIAN. ) );
#63 = DATE_AND_TIME ( #167, #154 ) ;
#64 = VERTEX_POINT ( 'NONE', #169 ) ;
#65 = ORIENTED_EDGE ( 'NONE', *, *, #135, .F. ) ;
#66 = PRODUCT_DEFINITION_SHAPE ( 'NONE', 'NONE',  #51 ) ;
#67 = AXIS2_PLACEMENT_3D ( 'NONE', #192, #37, #140 ) ;
#68 = EDGE_LOOP ( 'NONE', ( #224, #10, #65, #168 ) ) ;
#69 = APPROVAL ( #209, 'Î´Ö¸¶¨' ) ;
#70 = ORIENTED_EDGE ( 'NONE', *, *, #11, .F. ) ;
#71 = CARTESIAN_POINT ( 'NONE',  ( -25.00000000000000000, 24.99999999999999645, 2.299999999999999822 ) ) ;
#72 = FACE_OUTER_BOUND ( 'NONE', #119, .T. ) ;
#73 = DIRECTION ( 'NONE',  ( -1.000000000000000000, -0.000000000000000000, -0.000000000000000000 ) ) ;
#74 = LINE ( 'NONE', #134, #81 ) ;
#75 = SECURITY_CLASSIFICATION ( '', '', #198 ) ;
#76 = VECTOR ( 'NONE', #186, 1000.000000000000000 ) ;
#77 = PLANE ( 'NONE',  #159 ) ;
#78 = EDGE_CURVE ( 'NONE', #13, #101, #202, .T. ) ;
#79 = PERSON ( 'Î´Ö¸¶¨', 'Î´Ö¸¶¨', 'Î´Ö¸¶¨', ('Î´Ö¸¶¨'), ('Î´Ö¸¶¨'), ('Î´Ö¸¶¨') ) ;
#80 = PERSON_AND_ORGANIZATION_ROLE ( 'creator' ) ;
#81 = VECTOR ( 'NONE', #109, 1000.000000000000000 ) ;
#82 = EDGE_CURVE ( 'NONE', #30, #184, #57, .T. ) ;
#83 =( LENGTH_UNIT ( ) NAMED_UNIT ( * ) SI_UNIT ( .MILLI., .METRE. ) );
#84 = COORDINATED_UNIVERSAL_TIME_OFFSET ( 8, 0, .AHEAD. ) ;
#85 = EDGE_CURVE ( 'NONE', #143, #13, #56, .T. ) ;
#86 = EDGE_LOOP ( 'NONE', ( #126, #127, #99, #125 ) ) ;
#87 = EDGE_CURVE ( 'NONE', #101, #221, #152, .T. ) ;
#88 = FACE_OUTER_BOUND ( 'NONE', #164, .T. ) ;
#89 = CARTESIAN_POINT ( 'NONE',  ( -25.00000000000000000, 24.99999999999999645, 0.000000000000000000 ) ) ;
#90 = LOCAL_TIME ( 14, 25, 36.00000000000000000, #113 ) ;
#91 = CARTESIAN_POINT ( 'NONE',  ( -24.99999999999999289, -25.00000000000000355, 2.299999999999999822 ) ) ;
#92 = CARTESIAN_POINT ( 'NONE',  ( 0.000000000000000000, 0.000000000000000000, 2.299999999999999822 ) ) ;
#93 = CARTESIAN_POINT ( 'NONE',  ( -25.00000000000000000, 24.99999999999999645, 0.000000000000000000 ) ) ;
#94 = LOCAL_TIME ( 14, 25, 36.00000000000000000, #84 ) ;
#95 = LINE ( 'NONE', #197, #108 ) ;
#96 = FACE_OUTER_BOUND ( 'NONE', #201, .T. ) ;
#97 = LINE ( 'NONE', #7, #177 ) ;
#98 = CC_DESIGN_PERSON_AND_ORGANIZATION_ASSIGNMENT ( #26, #161, ( #42 ) ) ;
#99 = ORIENTED_EDGE ( 'NONE', *, *, #212, .F. ) ;
#100 = PERSON_AND_ORGANIZATION ( #79, #185 ) ;
#101 = VERTEX_POINT ( 'NONE', #187 ) ;
#102 = PRODUCT ( '900005', '900005', '', ( #118 ) ) ;
#103 = APPROVAL_ROLE ( '' ) ;
#104 = ORIENTED_EDGE ( 'NONE', *, *, #82, .T. ) ;
#105 = DIRECTION ( 'NONE',  ( 0.000000000000000000, 1.000000000000000000, 0.000000000000000000 ) ) ;
#106 = DIRECTION ( 'NONE',  ( 1.000000000000000000, 0.000000000000000000, 0.000000000000000000 ) ) ;
#107 = LINE ( 'NONE', #130, #76 ) ;
#108 = VECTOR ( 'NONE', #176, 1000.000000000000000 ) ;
#109 = DIRECTION ( 'NONE',  ( 1.000000000000000000, 0.000000000000000000, 0.000000000000000000 ) ) ;
#110 = ORIENTED_EDGE ( 'NONE', *, *, #82, .F. ) ;
#111 = ADVANCED_FACE ( 'NONE', ( #18 ), #170, .F. ) ;
#112 = DIRECTION ( 'NONE',  ( -1.387778780781445676E-16, 1.000000000000000000, -0.000000000000000000 ) ) ;
#113 = COORDINATED_UNIVERSAL_TIME_OFFSET ( 8, 0, .AHEAD. ) ;
#114 = PERSON_AND_ORGANIZATION ( #79, #185 ) ;
#115 = EDGE_CURVE ( 'NONE', #184, #101, #54, .T. ) ;
#116 = APPROVAL_DATE_TIME ( #41, #147 ) ;
#117 = APPROVAL_PERSON_ORGANIZATION ( #23, #147, #194 ) ;
#118 = MECHANICAL_CONTEXT ( 'NONE', #121, 'mechanical' ) ;
#119 = EDGE_LOOP ( 'NONE', ( #182, #146, #104, #200 ) ) ;
#120 = CALENDAR_DATE ( 2025, 14, 10 ) ;
#121 = APPLICATION_CONTEXT ( 'configuration controlled 3d designs of mechanical parts and assemblies' ) ;
#122 = ORIENTED_EDGE ( 'NONE', *, *, #178, .T. ) ;
#123 = VECTOR ( 'NONE', #32, 1000.000000000000000 ) ;
#124 = CC_DESIGN_DATE_AND_TIME_ASSIGNMENT ( #9, #193, ( #51 ) ) ;
#125 = ORIENTED_EDGE ( 'NONE', *, *, #46, .T. ) ;
#126 = ORIENTED_EDGE ( 'NONE', *, *, #11, .T. ) ;
#127 = ORIENTED_EDGE ( 'NONE', *, *, #178, .F. ) ;
#128 = CC_DESIGN_APPROVAL ( #147, ( #42 ) ) ;
#129 = APPROVAL ( #47, 'Î´Ö¸¶¨' ) ;
#130 = CARTESIAN_POINT ( 'NONE',  ( 25.00000000000000711, -25.00000000000000355, 2.299999999999999822 ) ) ;
#131 = CARTESIAN_POINT ( 'NONE',  ( -25.00000000000000000, 24.99999999999999645, 0.000000000000000000 ) ) ;
#132 = PLANE ( 'NONE',  #133 ) ;
#133 = AXIS2_PLACEMENT_3D ( 'NONE', #71, #204, #15 ) ;
#134 = CARTESIAN_POINT ( 'NONE',  ( -24.99999999999999289, -25.00000000000000355, 2.299999999999999822 ) ) ;
#135 = EDGE_CURVE ( 'NONE', #184, #64, #74, .T. ) ;
#136 = EDGE_LOOP ( 'NONE', ( #45, #165, #110, #199 ) ) ;
#137 = PERSON_AND_ORGANIZATION ( #79, #185 ) ;
#138 = CC_DESIGN_APPROVAL ( #129, ( #75 ) ) ;
#139 = CALENDAR_DATE ( 2025, 14, 10 ) ;
#140 = DIRECTION ( 'NONE',  ( 1.000000000000000000, 0.000000000000000000, 0.000000000000000000 ) ) ;
#141 = EDGE_CURVE ( 'NONE', #30, #13, #206, .T. ) ;
#142 = COORDINATED_UNIVERSAL_TIME_OFFSET ( 8, 0, .AHEAD. ) ;
#143 = VERTEX_POINT ( 'NONE', #20 ) ;
#144 = CLOSED_SHELL ( 'NONE', ( #111, #8, #61, #175, #38, #216 ) ) ;
#145 = VECTOR ( 'NONE', #36, 1000.000000000000000 ) ;
#146 = ORIENTED_EDGE ( 'NONE', *, *, #162, .T. ) ;
#147 = APPROVAL ( #40, 'Î´Ö¸¶¨' ) ;
#148 = DIRECTION ( 'NONE',  ( -1.387778780781445676E-16, 1.000000000000000000, -0.000000000000000000 ) ) ;
#149 =( GEOMETRIC_REPRESENTATION_CONTEXT ( 3 ) GLOBAL_UNCERTAINTY_ASSIGNED_CONTEXT ( ( #195 ) ) GLOBAL_UNIT_ASSIGNED_CONTEXT ( ( #83, #62, #157 ) ) REPRESENTATION_CONTEXT ( 'NONE', 'WORKASPACE' ) );
#150 = MANIFOLD_SOLID_BREP ( 'Í¹Ì¨-À­Éì1', #144 ) ;
#151 = DIRECTION ( 'NONE',  ( 1.387778780781445676E-16, -1.000000000000000000, 0.000000000000000000 ) ) ;
#152 = LINE ( 'NONE', #225, #189 ) ;
#153 = DIRECTION ( 'NONE',  ( 1.000000000000000000, 0.000000000000000000, 0.000000000000000000 ) ) ;
#154 = LOCAL_TIME ( 14, 25, 36.00000000000000000, #142 ) ;
#155 = CARTESIAN_POINT ( 'NONE',  ( -24.99999999999999289, -25.00000000000000355, 2.299999999999999822 ) ) ;
#156 = PRODUCT_RELATED_PRODUCT_CATEGORY ( 'detail', '', ( #102 ) ) ;
#157 =( NAMED_UNIT ( * ) SI_UNIT ( $, .STERADIAN. ) SOLID_ANGLE_UNIT ( ) );
#158 = APPROVAL_PERSON_ORGANIZATION ( #137, #69, #39 ) ;
#159 = AXIS2_PLACEMENT_3D ( 'NONE', #155, #105, #22 ) ;
#160 = PERSON_AND_ORGANIZATION_ROLE ( 'design_owner' ) ;
#161 = PERSON_AND_ORGANIZATION_ROLE ( 'creator' ) ;
#162 = EDGE_CURVE ( 'NONE', #28, #30, #191, .T. ) ;
#163 = CC_DESIGN_APPROVAL ( #69, ( #51 ) ) ;
#164 = EDGE_LOOP ( 'NONE', ( #50, #217, #29, #122 ) ) ;
#165 = ORIENTED_EDGE ( 'NONE', *, *, #115, .F. ) ;
#166 = ORIENTED_EDGE ( 'NONE', *, *, #78, .F. ) ;
#167 = CALENDAR_DATE ( 2025, 14, 10 ) ;
#168 = ORIENTED_EDGE ( 'NONE', *, *, #115, .T. ) ;
#169 = CARTESIAN_POINT ( 'NONE',  ( 25.00000000000000711, -25.00000000000000355, 2.299999999999999822 ) ) ;
#170 = PLANE ( 'NONE',  #6 ) ;
#171 = DIRECTION ( 'NONE',  ( -1.000000000000000000, -1.387778780781445676E-16, 0.000000000000000000 ) ) ;
#172 = CC_DESIGN_PERSON_AND_ORGANIZATION_ASSIGNMENT ( #196, #160, ( #102 ) ) ;
#173 = PLANE ( 'NONE',  #223 ) ;
#174 = DIRECTION ( 'NONE',  ( -1.000000000000000000, -0.000000000000000000, -0.000000000000000000 ) ) ;
#175 = ADVANCED_FACE ( 'NONE', ( #4 ), #77, .F. ) ;
#176 = DIRECTION ( 'NONE',  ( -0.000000000000000000, -0.000000000000000000, -1.000000000000000000 ) ) ;
#177 = VECTOR ( 'NONE', #112, 1000.000000000000000 ) ;
#178 = EDGE_CURVE ( 'NONE', #28, #143, #95, .T. ) ;
#179 = APPLICATION_PROTOCOL_DEFINITION ( 'international standard', 'config_control_design', 1994, #180 ) ;
#180 = APPLICATION_CONTEXT ( 'configuration controlled 3d designs of mechanical parts and assemblies' ) ;
#181 = PERSON_AND_ORGANIZATION_ROLE ( 'classification_officer' ) ;
#182 = ORIENTED_EDGE ( 'NONE', *, *, #212, .T. ) ;
#183 = APPROVAL_DATE_TIME ( #12, #129 ) ;
#184 = VERTEX_POINT ( 'NONE', #25 ) ;
#185 = ORGANIZATION ( 'Î´Ö¸¶¨', 'Î´Ö¸¶¨', '' ) ;
#186 = DIRECTION ( 'NONE',  ( -0.000000000000000000, -0.000000000000000000, -1.000000000000000000 ) ) ;
#187 = CARTESIAN_POINT ( 'NONE',  ( -24.99999999999999289, -25.00000000000000355, 0.000000000000000000 ) ) ;
#188 = DIRECTION ( 'NONE',  ( 1.387778780781445676E-16, -1.000000000000000000, 0.000000000000000000 ) ) ;
#189 = VECTOR ( 'NONE', #106, 1000.000000000000000 ) ;
#190 = FACE_OUTER_BOUND ( 'NONE', #136, .T. ) ;
#191 = LINE ( 'NONE', #21, #219 ) ;
#192 = CARTESIAN_POINT ( 'NONE',  ( 0.000000000000000000, 0.000000000000000000, 0.000000000000000000 ) ) ;
#193 = DATE_TIME_ROLE ( 'creation_date' ) ;
#194 = APPROVAL_ROLE ( '' ) ;
#195 = UNCERTAINTY_MEASURE_WITH_UNIT (LENGTH_MEASURE( 1.000000000000000082E-05 ), #83, 'distance_accuracy_value', 'NONE');
#196 = PERSON_AND_ORGANIZATION ( #79, #185 ) ;
#197 = CARTESIAN_POINT ( 'NONE',  ( 25.00000000000000000, 24.99999999999999645, 2.299999999999999822 ) ) ;
#198 = SECURITY_CLASSIFICATION_LEVEL ( 'unclassified' ) ;
#199 = ORIENTED_EDGE ( 'NONE', *, *, #141, .T. ) ;
#200 = ORIENTED_EDGE ( 'NONE', *, *, #135, .T. ) ;
#201 = EDGE_LOOP ( 'NONE', ( #70, #220, #166, #234 ) ) ;
#202 = LINE ( 'NONE', #131, #237 ) ;
#203 = CC_DESIGN_DATE_AND_TIME_ASSIGNMENT ( #63, #215, ( #75 ) ) ;
#204 = DIRECTION ( 'NONE',  ( 0.000000000000000000, -1.000000000000000000, 0.000000000000000000 ) ) ;
#205 = CARTESIAN_POINT ( 'NONE',  ( 25.00000000000000000, 24.99999999999999645, 0.000000000000000000 ) ) ;
#206 = LINE ( 'NONE', #55, #145 ) ;
#207 = CC_DESIGN_PERSON_AND_ORGANIZATION_ASSIGNMENT ( #114, #80, ( #51 ) ) ;
#208 = DIRECTION ( 'NONE',  ( -0.000000000000000000, 0.000000000000000000, 1.000000000000000000 ) ) ;
#209 = APPROVAL_STATUS ( 'not_yet_approved' ) ;
#210 = DATE_AND_TIME ( #229, #94 ) ;
#211 = CARTESIAN_POINT ( 'NONE',  ( 25.00000000000000711, -25.00000000000000355, 0.000000000000000000 ) ) ;
#212 = EDGE_CURVE ( 'NONE', #64, #28, #97, .T. ) ;
#213 = DESIGN_CONTEXT ( 'detailed design', #180, 'design' ) ;
#214 = PERSON_AND_ORGANIZATION ( #79, #185 ) ;
#215 = DATE_TIME_ROLE ( 'classification_date' ) ;
#216 = ADVANCED_FACE ( 'NONE', ( #96 ), #27, .F. ) ;
#217 = ORIENTED_EDGE ( 'NONE', *, *, #141, .F. ) ;
#218 = PERSON_AND_ORGANIZATION_ROLE ( 'design_supplier' ) ;
#219 = VECTOR ( 'NONE', #174, 1000.000000000000000 ) ;
#220 = ORIENTED_EDGE ( 'NONE', *, *, #87, .F. ) ;
#221 = VERTEX_POINT ( 'NONE', #211 ) ;
#222 = PLANE ( 'NONE',  #5 ) ;
#223 = AXIS2_PLACEMENT_3D ( 'NONE', #3, #226, #34 ) ;
#224 = ORIENTED_EDGE ( 'NONE', *, *, #87, .T. ) ;
#225 = CARTESIAN_POINT ( 'NONE',  ( -24.99999999999999289, -25.00000000000000355, 0.000000000000000000 ) ) ;
#226 = DIRECTION ( 'NONE',  ( 1.000000000000000000, 1.387778780781445676E-16, -0.000000000000000000 ) ) ;
#227 = LINE ( 'NONE', #205, #59 ) ;
#228 = APPLICATION_PROTOCOL_DEFINITION ( 'international standard', 'config_control_design', 1994, #121 ) ;
#229 = CALENDAR_DATE ( 2025, 14, 10 ) ;
#230 = APPROVAL_DATE_TIME ( #210, #69 ) ;
#231 = CARTESIAN_POINT ( 'NONE',  ( 0.000000000000000000, 0.000000000000000000, 0.000000000000000000 ) ) ;
#232 = DIRECTION ( 'NONE',  ( 1.000000000000000000, 0.000000000000000000, 0.000000000000000000 ) ) ;
#233 = LOCAL_TIME ( 14, 25, 36.00000000000000000, #60 ) ;
#234 = ORIENTED_EDGE ( 'NONE', *, *, #85, .F. ) ;
#235 = COORDINATED_UNIVERSAL_TIME_OFFSET ( 8, 0, .AHEAD. ) ;
#236 = ADVANCED_BREP_SHAPE_REPRESENTATION ( '900005', ( #150, #67 ), #149 ) ;
#237 = VECTOR ( 'NONE', #188, 1000.000000000000000 ) ;
ENDSEC;
END-ISO-10303-21;
