ISO-10303-21;
HEADER;
FILE_DESCRIPTION (( 'STEP AP203' ),
    '1' );
FILE_NAME ('900007.STEP',
    '2025-10-14T06:26:18',
    ( 'Windows User' ),
    ( 'P R C' ),
    'SwSTEP 2.0',
    'SolidWorks 2020',
    '' );
FILE_SCHEMA (( 'CONFIG_CONTROL_DESIGN' ));
ENDSEC;

DATA;
#1 = APPROVAL_STATUS ( 'not_yet_approved' ) ;
#2 = EDGE_LOOP ( 'NONE', ( #152, #226, #171, #164 ) ) ;
#3 = PERSON_AND_ORGANIZATION ( #5, #83 ) ;
#4 = AXIS2_PLACEMENT_3D ( 'NONE', #174, #55, #78 ) ;
#5 = PERSON ( 'Î´Ö¸¶¨', 'Î´Ö¸¶¨', 'Î´Ö¸¶¨', ('Î´Ö¸¶¨'), ('Î´Ö¸¶¨'), ('Î´Ö¸¶¨') ) ;
#6 = PLANE ( 'NONE',  #161 ) ;
#7 = EDGE_CURVE ( 'NONE', #231, #73, #192, .T. ) ;
#8 = DIRECTION ( 'NONE',  ( -2.081668171172168513E-16, 1.000000000000000000, -0.000000000000000000 ) ) ;
#9 = EDGE_LOOP ( 'NONE', ( #97, #129, #38, #168 ) ) ;
#10 = VERTEX_POINT ( 'NONE', #49 ) ;
#11 = PERSON_AND_ORGANIZATION ( #5, #83 ) ;
#12 = VECTOR ( 'NONE', #45, 1000.000000000000000 ) ;
#13 = CARTESIAN_POINT ( 'NONE',  ( -25.00000000000000000, 25.00000000000000000, 2.299999999999999822 ) ) ;
#14 = PLANE ( 'NONE',  #102 ) ;
#15 = CC_DESIGN_PERSON_AND_ORGANIZATION_ASSIGNMENT ( #112, #144, ( #109 ) ) ;
#16 = LINE ( 'NONE', #217, #125 ) ;
#17 = VECTOR ( 'NONE', #116, 1000.000000000000000 ) ;
#18 = PERSON_AND_ORGANIZATION ( #5, #83 ) ;
#19 = APPROVAL_DATE_TIME ( #169, #100 ) ;
#20 = DATE_AND_TIME ( #22, #67 ) ;
#21 = SHAPE_DEFINITION_REPRESENTATION ( #90, #87 ) ;
#22 = CALENDAR_DATE ( 2025, 14, 10 ) ;
#23 = EDGE_CURVE ( 'NONE', #194, #114, #195, .T. ) ;
#24 = APPROVAL_PERSON_ORGANIZATION ( #163, #213, #224 ) ;
#25 = FACE_OUTER_BOUND ( 'NONE', #29, .T. ) ;
#26 = DIRECTION ( 'NONE',  ( -0.000000000000000000, -0.000000000000000000, -1.000000000000000000 ) ) ;
#27 = LINE ( 'NONE', #208, #17 ) ;
#28 = CARTESIAN_POINT ( 'NONE',  ( -24.99999999999999645, -25.00000000000000000, 2.299999999999999822 ) ) ;
#29 = EDGE_LOOP ( 'NONE', ( #203, #62, #147, #60 ) ) ;
#30 = CC_DESIGN_PERSON_AND_ORGANIZATION_ASSIGNMENT ( #18, #206, ( #145 ) ) ;
#31 = LINE ( 'NONE', #36, #228 ) ;
#32 = VECTOR ( 'NONE', #133, 1000.000000000000000 ) ;
#33 = DIRECTION ( 'NONE',  ( 1.000000000000000000, 0.000000000000000000, 0.000000000000000000 ) ) ;
#34 = CC_DESIGN_PERSON_AND_ORGANIZATION_ASSIGNMENT ( #11, #110, ( #52 ) ) ;
#35 = CARTESIAN_POINT ( 'NONE',  ( -24.99999999999999645, -25.00000000000000000, 0.000000000000000000 ) ) ;
#36 = CARTESIAN_POINT ( 'NONE',  ( 25.00000000000000000, 25.00000000000000000, 2.299999999999999822 ) ) ;
#37 = APPROVAL_STATUS ( 'not_yet_approved' ) ;
#38 = ORIENTED_EDGE ( 'NONE', *, *, #200, .F. ) ;
#39 = APPROVAL_ROLE ( '' ) ;
#40 = APPROVAL_PERSON_ORGANIZATION ( #42, #48, #186 ) ;
#41 = EDGE_CURVE ( 'NONE', #135, #114, #96, .T. ) ;
#42 = PERSON_AND_ORGANIZATION ( #5, #83 ) ;
#43 = COORDINATED_UNIVERSAL_TIME_OFFSET ( 8, 0, .AHEAD. ) ;
#44 = CARTESIAN_POINT ( 'NONE',  ( -25.00000000000000000, 25.00000000000000000, 0.000000000000000000 ) ) ;
#45 = DIRECTION ( 'NONE',  ( -1.000000000000000000, -0.000000000000000000, -0.000000000000000000 ) ) ;
#46 = VERTEX_POINT ( 'NONE', #214 ) ;
#47 = LINE ( 'NONE', #121, #165 ) ;
#48 = APPROVAL ( #148, 'Î´Ö¸¶¨' ) ;
#49 = CARTESIAN_POINT ( 'NONE',  ( -25.00000000000000000, 25.00000000000000000, 2.299999999999999822 ) ) ;
#50 = CARTESIAN_POINT ( 'NONE',  ( -24.99999999999999645, -25.00000000000000000, 2.299999999999999822 ) ) ;
#51 = ADVANCED_FACE ( 'NONE', ( #103 ), #118, .T. ) ;
#52 = PRODUCT ( '900007', '900007', '', ( #160 ) ) ;
#53 = CALENDAR_DATE ( 2025, 14, 10 ) ;
#54 = CALENDAR_DATE ( 2025, 14, 10 ) ;
#55 = DIRECTION ( 'NONE',  ( -0.000000000000000000, 0.000000000000000000, 1.000000000000000000 ) ) ;
#56 = ORIENTED_EDGE ( 'NONE', *, *, #176, .F. ) ;
#57 = VECTOR ( 'NONE', #177, 1000.000000000000000 ) ;
#58 = ORIENTED_EDGE ( 'NONE', *, *, #7, .F. ) ;
#59 = UNCERTAINTY_MEASURE_WITH_UNIT (LENGTH_MEASURE( 1.000000000000000082E-05 ), #127, 'distance_accuracy_value', 'NONE');
#60 = ORIENTED_EDGE ( 'NONE', *, *, #91, .F. ) ;
#61 = EDGE_CURVE ( 'NONE', #120, #73, #47, .T. ) ;
#62 = ORIENTED_EDGE ( 'NONE', *, *, #182, .F. ) ;
#63 = CLOSED_SHELL ( 'NONE', ( #119, #219, #178, #225, #51, #85 ) ) ;
#64 = CARTESIAN_POINT ( 'NONE',  ( -25.00000000000000000, 25.00000000000000000, 2.299999999999999822 ) ) ;
#65 = CARTESIAN_POINT ( 'NONE',  ( 25.00000000000000000, 25.00000000000000000, 2.299999999999999822 ) ) ;
#66 = CARTESIAN_POINT ( 'NONE',  ( 0.000000000000000000, 0.000000000000000000, 0.000000000000000000 ) ) ;
#67 = LOCAL_TIME ( 14, 26, 18.00000000000000000, #184 ) ;
#68 = FACE_OUTER_BOUND ( 'NONE', #9, .T. ) ;
#69 =( NAMED_UNIT ( * ) SI_UNIT ( $, .STERADIAN. ) SOLID_ANGLE_UNIT ( ) );
#70 = EDGE_CURVE ( 'NONE', #46, #120, #77, .T. ) ;
#71 = DATE_AND_TIME ( #54, #149 ) ;
#72 = VECTOR ( 'NONE', #26, 1000.000000000000000 ) ;
#73 = VERTEX_POINT ( 'NONE', #132 ) ;
#74 = EDGE_CURVE ( 'NONE', #10, #194, #27, .T. ) ;
#75 = ORIENTED_EDGE ( 'NONE', *, *, #7, .T. ) ;
#76 = CARTESIAN_POINT ( 'NONE',  ( 0.000000000000000000, 0.000000000000000000, 0.000000000000000000 ) ) ;
#77 = LINE ( 'NONE', #190, #57 ) ;
#78 = DIRECTION ( 'NONE',  ( 1.000000000000000000, 0.000000000000000000, 0.000000000000000000 ) ) ;
#79 = DIRECTION ( 'NONE',  ( 1.000000000000000000, 0.000000000000000000, 0.000000000000000000 ) ) ;
#80 = DIRECTION ( 'NONE',  ( 6.938893903907228378E-17, -1.000000000000000000, 0.000000000000000000 ) ) ;
#81 = DIRECTION ( 'NONE',  ( -2.081668171172168513E-16, 1.000000000000000000, -0.000000000000000000 ) ) ;
#82 = APPLICATION_PROTOCOL_DEFINITION ( 'international standard', 'config_control_design', 1994, #98 ) ;
#83 = ORGANIZATION ( 'Î´Ö¸¶¨', 'Î´Ö¸¶¨', '' ) ;
#84 = CARTESIAN_POINT ( 'NONE',  ( -24.99999999999999645, -25.00000000000000000, 2.299999999999999822 ) ) ;
#85 = ADVANCED_FACE ( 'NONE', ( #25 ), #6, .F. ) ;
#86 = PERSON_AND_ORGANIZATION_ROLE ( 'creator' ) ;
#87 = ADVANCED_BREP_SHAPE_REPRESENTATION ( '900007', ( #193, #201 ), #92 ) ;
#88 = CALENDAR_DATE ( 2025, 14, 10 ) ;
#89 = ORIENTED_EDGE ( 'NONE', *, *, #182, .T. ) ;
#90 = PRODUCT_DEFINITION_SHAPE ( 'NONE', 'NONE',  #142 ) ;
#91 = EDGE_CURVE ( 'NONE', #73, #194, #227, .T. ) ;
#92 =( GEOMETRIC_REPRESENTATION_CONTEXT ( 3 ) GLOBAL_UNCERTAINTY_ASSIGNED_CONTEXT ( ( #59 ) ) GLOBAL_UNIT_ASSIGNED_CONTEXT ( ( #127, #199, #69 ) ) REPRESENTATION_CONTEXT ( 'NONE', 'WORKASPACE' ) );
#93 = DATE_TIME_ROLE ( 'classification_date' ) ;
#94 = VECTOR ( 'NONE', #79, 1000.000000000000000 ) ;
#95 = PRODUCT_RELATED_PRODUCT_CATEGORY ( 'detail', '', ( #52 ) ) ;
#96 = LINE ( 'NONE', #28, #72 ) ;
#97 = ORIENTED_EDGE ( 'NONE', *, *, #23, .T. ) ;
#98 = APPLICATION_CONTEXT ( 'configuration controlled 3d designs of mechanical parts and assemblies' ) ;
#99 = DESIGN_CONTEXT ( 'detailed design', #204, 'design' ) ;
#100 = APPROVAL ( #37, 'Î´Ö¸¶¨' ) ;
#101 = PLANE ( 'NONE',  #143 ) ;
#102 = AXIS2_PLACEMENT_3D ( 'NONE', #162, #108, #236 ) ;
#103 = FACE_OUTER_BOUND ( 'NONE', #2, .T. ) ;
#104 = DIRECTION ( 'NONE',  ( 6.938893903907228378E-17, -1.000000000000000000, 0.000000000000000000 ) ) ;
#105 = DIRECTION ( 'NONE',  ( 0.000000000000000000, -1.000000000000000000, 0.000000000000000000 ) ) ;
#106 = LINE ( 'NONE', #50, #94 ) ;
#107 = PLANE ( 'NONE',  #141 ) ;
#108 = DIRECTION ( 'NONE',  ( 0.000000000000000000, 1.000000000000000000, 0.000000000000000000 ) ) ;
#109 = PRODUCT_DEFINITION_FORMATION_WITH_SPECIFIED_SOURCE ( 'ÈÎºÎ', '', #52, .NOT_KNOWN. ) ;
#110 = PERSON_AND_ORGANIZATION_ROLE ( 'design_owner' ) ;
#111 = ORIENTED_EDGE ( 'NONE', *, *, #61, .T. ) ;
#112 = PERSON_AND_ORGANIZATION ( #5, #83 ) ;
#113 = VECTOR ( 'NONE', #33, 1000.000000000000000 ) ;
#114 = VERTEX_POINT ( 'NONE', #191 ) ;
#115 = PERSON_AND_ORGANIZATION ( #5, #83 ) ;
#116 = DIRECTION ( 'NONE',  ( -0.000000000000000000, -0.000000000000000000, -1.000000000000000000 ) ) ;
#117 = VECTOR ( 'NONE', #104, 1000.000000000000000 ) ;
#118 = PLANE ( 'NONE',  #4 ) ;
#119 = ADVANCED_FACE ( 'NONE', ( #212 ), #101, .F. ) ;
#120 = VERTEX_POINT ( 'NONE', #234 ) ;
#121 = CARTESIAN_POINT ( 'NONE',  ( 25.00000000000000000, 25.00000000000000000, 0.000000000000000000 ) ) ;
#122 = CARTESIAN_POINT ( 'NONE',  ( 25.00000000000000000, 25.00000000000000000, 2.299999999999999822 ) ) ;
#123 = APPLICATION_PROTOCOL_DEFINITION ( 'international standard', 'config_control_design', 1994, #204 ) ;
#124 = CARTESIAN_POINT ( 'NONE',  ( -25.00000000000000000, 25.00000000000000000, 2.299999999999999822 ) ) ;
#125 = VECTOR ( 'NONE', #80, 1000.000000000000000 ) ;
#126 = DIRECTION ( 'NONE',  ( 1.000000000000000000, 0.000000000000000000, 0.000000000000000000 ) ) ;
#127 =( LENGTH_UNIT ( ) NAMED_UNIT ( * ) SI_UNIT ( .MILLI., .METRE. ) );
#128 = CC_DESIGN_APPROVAL ( #100, ( #109 ) ) ;
#129 = ORIENTED_EDGE ( 'NONE', *, *, #41, .F. ) ;
#130 = COORDINATED_UNIVERSAL_TIME_OFFSET ( 8, 0, .AHEAD. ) ;
#131 = DATE_AND_TIME ( #53, #189 ) ;
#132 = CARTESIAN_POINT ( 'NONE',  ( 25.00000000000000000, 25.00000000000000000, 0.000000000000000000 ) ) ;
#133 = DIRECTION ( 'NONE',  ( -0.000000000000000000, -0.000000000000000000, -1.000000000000000000 ) ) ;
#134 = DIRECTION ( 'NONE',  ( -0.000000000000000000, 0.000000000000000000, 1.000000000000000000 ) ) ;
#135 = VERTEX_POINT ( 'NONE', #84 ) ;
#136 = ORIENTED_EDGE ( 'NONE', *, *, #70, .T. ) ;
#137 = EDGE_CURVE ( 'NONE', #231, #10, #218, .T. ) ;
#138 = DIRECTION ( 'NONE',  ( -6.938893903907228378E-17, 1.000000000000000000, 0.000000000000000000 ) ) ;
#139 = DIRECTION ( 'NONE',  ( -1.000000000000000000, -2.081668171172168760E-16, 0.000000000000000000 ) ) ;
#140 = DIRECTION ( 'NONE',  ( 0.000000000000000000, 0.000000000000000000, 1.000000000000000000 ) ) ;
#141 = AXIS2_PLACEMENT_3D ( 'NONE', #13, #220, #138 ) ;
#142 = PRODUCT_DEFINITION ( 'Î´Öª', '', #109, #99 ) ;
#143 = AXIS2_PLACEMENT_3D ( 'NONE', #65, #139, #158 ) ;
#144 = PERSON_AND_ORGANIZATION_ROLE ( 'design_supplier' ) ;
#145 = SECURITY_CLASSIFICATION ( '', '', #166 ) ;
#146 = PERSON_AND_ORGANIZATION_ROLE ( 'creator' ) ;
#147 = ORIENTED_EDGE ( 'NONE', *, *, #23, .F. ) ;
#148 = APPROVAL_STATUS ( 'not_yet_approved' ) ;
#149 = LOCAL_TIME ( 14, 26, 18.00000000000000000, #43 ) ;
#150 = EDGE_LOOP ( 'NONE', ( #89, #187, #229, #232 ) ) ;
#151 = DIRECTION ( 'NONE',  ( 1.000000000000000000, 0.000000000000000000, 0.000000000000000000 ) ) ;
#152 = ORIENTED_EDGE ( 'NONE', *, *, #176, .T. ) ;
#153 = CC_DESIGN_APPROVAL ( #213, ( #145 ) ) ;
#154 = EDGE_LOOP ( 'NONE', ( #175, #155, #216, #75 ) ) ;
#155 = ORIENTED_EDGE ( 'NONE', *, *, #74, .F. ) ;
#156 = CC_DESIGN_DATE_AND_TIME_ASSIGNMENT ( #20, #93, ( #145 ) ) ;
#157 = CARTESIAN_POINT ( 'NONE',  ( -25.00000000000000000, 25.00000000000000000, 0.000000000000000000 ) ) ;
#158 = DIRECTION ( 'NONE',  ( 2.081668171172168760E-16, -1.000000000000000000, 0.000000000000000000 ) ) ;
#159 = EDGE_CURVE ( 'NONE', #135, #46, #106, .T. ) ;
#160 = MECHANICAL_CONTEXT ( 'NONE', #98, 'mechanical' ) ;
#161 = AXIS2_PLACEMENT_3D ( 'NONE', #76, #134, #151 ) ;
#162 = CARTESIAN_POINT ( 'NONE',  ( -24.99999999999999645, -25.00000000000000000, 2.299999999999999822 ) ) ;
#163 = PERSON_AND_ORGANIZATION ( #5, #83 ) ;
#164 = ORIENTED_EDGE ( 'NONE', *, *, #159, .T. ) ;
#165 = VECTOR ( 'NONE', #8, 1000.000000000000000 ) ;
#166 = SECURITY_CLASSIFICATION_LEVEL ( 'unclassified' ) ;
#167 = DATE_AND_TIME ( #183, #233 ) ;
#168 = ORIENTED_EDGE ( 'NONE', *, *, #74, .T. ) ;
#169 = DATE_AND_TIME ( #88, #173 ) ;
#170 = CC_DESIGN_APPROVAL ( #48, ( #142 ) ) ;
#171 = ORIENTED_EDGE ( 'NONE', *, *, #200, .T. ) ;
#172 = EDGE_LOOP ( 'NONE', ( #111, #58, #56, #136 ) ) ;
#173 = LOCAL_TIME ( 14, 26, 18.00000000000000000, #202 ) ;
#174 = CARTESIAN_POINT ( 'NONE',  ( 0.000000000000000000, 0.000000000000000000, 2.299999999999999822 ) ) ;
#175 = ORIENTED_EDGE ( 'NONE', *, *, #91, .T. ) ;
#176 = EDGE_CURVE ( 'NONE', #46, #231, #31, .T. ) ;
#177 = DIRECTION ( 'NONE',  ( -0.000000000000000000, -0.000000000000000000, -1.000000000000000000 ) ) ;
#178 = ADVANCED_FACE ( 'NONE', ( #68 ), #107, .F. ) ;
#179 = PLANE ( 'NONE',  #197 ) ;
#180 = DIRECTION ( 'NONE',  ( 0.000000000000000000, -0.000000000000000000, -1.000000000000000000 ) ) ;
#181 = CARTESIAN_POINT ( 'NONE',  ( 25.00000000000000000, 25.00000000000000000, 2.299999999999999822 ) ) ;
#182 = EDGE_CURVE ( 'NONE', #114, #120, #198, .T. ) ;
#183 = CALENDAR_DATE ( 2025, 14, 10 ) ;
#184 = COORDINATED_UNIVERSAL_TIME_OFFSET ( 8, 0, .AHEAD. ) ;
#185 = CC_DESIGN_DATE_AND_TIME_ASSIGNMENT ( #131, #205, ( #142 ) ) ;
#186 = APPROVAL_ROLE ( '' ) ;
#187 = ORIENTED_EDGE ( 'NONE', *, *, #70, .F. ) ;
#188 = PERSON_AND_ORGANIZATION ( #5, #83 ) ;
#189 = LOCAL_TIME ( 14, 26, 18.00000000000000000, #130 ) ;
#190 = CARTESIAN_POINT ( 'NONE',  ( 25.00000000000001066, -25.00000000000000000, 2.299999999999999822 ) ) ;
#191 = CARTESIAN_POINT ( 'NONE',  ( -24.99999999999999645, -25.00000000000000000, 0.000000000000000000 ) ) ;
#192 = LINE ( 'NONE', #122, #32 ) ;
#193 = MANIFOLD_SOLID_BREP ( 'Í¹Ì¨-À­Éì1', #63 ) ;
#194 = VERTEX_POINT ( 'NONE', #157 ) ;
#195 = LINE ( 'NONE', #44, #117 ) ;
#196 = FACE_OUTER_BOUND ( 'NONE', #150, .T. ) ;
#197 = AXIS2_PLACEMENT_3D ( 'NONE', #124, #105, #180 ) ;
#198 = LINE ( 'NONE', #35, #113 ) ;
#199 =( NAMED_UNIT ( * ) PLANE_ANGLE_UNIT ( ) SI_UNIT ( $, .RADIAN. ) );
#200 = EDGE_CURVE ( 'NONE', #10, #135, #16, .T. ) ;
#201 = AXIS2_PLACEMENT_3D ( 'NONE', #66, #140, #126 ) ;
#202 = COORDINATED_UNIVERSAL_TIME_OFFSET ( 8, 0, .AHEAD. ) ;
#203 = ORIENTED_EDGE ( 'NONE', *, *, #61, .F. ) ;
#204 = APPLICATION_CONTEXT ( 'configuration controlled 3d designs of mechanical parts and assemblies' ) ;
#205 = DATE_TIME_ROLE ( 'creation_date' ) ;
#206 = PERSON_AND_ORGANIZATION_ROLE ( 'classification_officer' ) ;
#207 = APPROVAL_DATE_TIME ( #167, #48 ) ;
#208 = CARTESIAN_POINT ( 'NONE',  ( -25.00000000000000000, 25.00000000000000000, 2.299999999999999822 ) ) ;
#209 = CC_DESIGN_PERSON_AND_ORGANIZATION_ASSIGNMENT ( #188, #86, ( #109 ) ) ;
#210 = APPROVAL_PERSON_ORGANIZATION ( #3, #100, #39 ) ;
#211 = CARTESIAN_POINT ( 'NONE',  ( -25.00000000000000000, 25.00000000000000000, 0.000000000000000000 ) ) ;
#212 = FACE_OUTER_BOUND ( 'NONE', #172, .T. ) ;
#213 = APPROVAL ( #1, 'Î´Ö¸¶¨' ) ;
#214 = CARTESIAN_POINT ( 'NONE',  ( 25.00000000000001066, -25.00000000000000000, 2.299999999999999822 ) ) ;
#215 = VECTOR ( 'NONE', #237, 1000.000000000000000 ) ;
#216 = ORIENTED_EDGE ( 'NONE', *, *, #137, .F. ) ;
#217 = CARTESIAN_POINT ( 'NONE',  ( -25.00000000000000000, 25.00000000000000000, 2.299999999999999822 ) ) ;
#218 = LINE ( 'NONE', #64, #215 ) ;
#219 = ADVANCED_FACE ( 'NONE', ( #235 ), #179, .F. ) ;
#220 = DIRECTION ( 'NONE',  ( 1.000000000000000000, 6.938893903907228378E-17, -0.000000000000000000 ) ) ;
#221 = CC_DESIGN_SECURITY_CLASSIFICATION ( #145, ( #109 ) ) ;
#222 = APPROVAL_DATE_TIME ( #71, #213 ) ;
#223 = COORDINATED_UNIVERSAL_TIME_OFFSET ( 8, 0, .AHEAD. ) ;
#224 = APPROVAL_ROLE ( '' ) ;
#225 = ADVANCED_FACE ( 'NONE', ( #196 ), #14, .F. ) ;
#226 = ORIENTED_EDGE ( 'NONE', *, *, #137, .T. ) ;
#227 = LINE ( 'NONE', #211, #12 ) ;
#228 = VECTOR ( 'NONE', #81, 1000.000000000000000 ) ;
#229 = ORIENTED_EDGE ( 'NONE', *, *, #159, .F. ) ;
#230 = CC_DESIGN_PERSON_AND_ORGANIZATION_ASSIGNMENT ( #115, #146, ( #142 ) ) ;
#231 = VERTEX_POINT ( 'NONE', #181 ) ;
#232 = ORIENTED_EDGE ( 'NONE', *, *, #41, .T. ) ;
#233 = LOCAL_TIME ( 14, 26, 18.00000000000000000, #223 ) ;
#234 = CARTESIAN_POINT ( 'NONE',  ( 25.00000000000001066, -25.00000000000000000, 0.000000000000000000 ) ) ;
#235 = FACE_OUTER_BOUND ( 'NONE', #154, .T. ) ;
#236 = DIRECTION ( 'NONE',  ( 0.000000000000000000, -0.000000000000000000, 1.000000000000000000 ) ) ;
#237 = DIRECTION ( 'NONE',  ( -1.000000000000000000, -0.000000000000000000, -0.000000000000000000 ) ) ;
ENDSEC;
END-ISO-10303-21;
