ISO-10303-21;
HEADER;
FILE_DESCRIPTION (( 'STEP AP203' ),
    '1' );
FILE_NAME ('900008.STEP',
    '2025-10-14T06:21:50',
    ( 'Windows User' ),
    ( 'P R C' ),
    'SwSTEP 2.0',
    'SolidWorks 2020',
    '' );
FILE_SCHEMA (( 'CONFIG_CONTROL_DESIGN' ));
ENDSEC;

DATA;
#1 = ORIENTED_EDGE ( 'NONE', *, *, #91, .T. ) ;
#2 = ORIENTED_EDGE ( 'NONE', *, *, #136, .F. ) ;
#3 = CC_DESIGN_PERSON_AND_ORGANIZATION_ASSIGNMENT ( #220, #133, ( #70 ) ) ;
#4 = ORIENTED_EDGE ( 'NONE', *, *, #74, .T. ) ;
#5 = VECTOR ( 'NONE', #164, 1000.000000000000000 ) ;
#6 = ORIENTED_EDGE ( 'NONE', *, *, #74, .F. ) ;
#7 = VECTOR ( 'NONE', #189, 1000.000000000000000 ) ;
#8 = ORIENTED_EDGE ( 'NONE', *, *, #26, .T. ) ;
#9 = DIRECTION ( 'NONE',  ( 1.000000000000000000, 0.000000000000000000, 0.000000000000000000 ) ) ;
#10 = CARTESIAN_POINT ( 'NONE',  ( 37.99999999999999289, 37.99999999999999289, 2.299999999999999822 ) ) ;
#11 = EDGE_CURVE ( 'NONE', #208, #45, #119, .T. ) ;
#12 = DIRECTION ( 'NONE',  ( -0.000000000000000000, -0.000000000000000000, -1.000000000000000000 ) ) ;
#13 = APPROVAL_PERSON_ORGANIZATION ( #58, #76, #75 ) ;
#14 = LINE ( 'NONE', #181, #160 ) ;
#15 = APPROVAL_DATE_TIME ( #237, #130 ) ;
#16 = CC_DESIGN_DATE_AND_TIME_ASSIGNMENT ( #94, #169, ( #70 ) ) ;
#17 = APPLICATION_CONTEXT ( 'configuration controlled 3d designs of mechanical parts and assemblies' ) ;
#18 = PERSON_AND_ORGANIZATION ( #98, #153 ) ;
#19 = CALENDAR_DATE ( 2025, 14, 10 ) ;
#20 = CALENDAR_DATE ( 2025, 14, 10 ) ;
#21 = LOCAL_TIME ( 14, 21, 50.00000000000000000, #56 ) ;
#22 = VERTEX_POINT ( 'NONE', #222 ) ;
#23 = CC_DESIGN_DATE_AND_TIME_ASSIGNMENT ( #55, #200, ( #93 ) ) ;
#24 = LOCAL_TIME ( 14, 21, 50.00000000000000000, #92 ) ;
#25 = CARTESIAN_POINT ( 'NONE',  ( -38.00000000000000000, -38.00000000000000711, 0.000000000000000000 ) ) ;
#26 = EDGE_CURVE ( 'NONE', #61, #60, #192, .T. ) ;
#27 = ORIENTED_EDGE ( 'NONE', *, *, #142, .T. ) ;
#28 = DIRECTION ( 'NONE',  ( -0.000000000000000000, 0.000000000000000000, 1.000000000000000000 ) ) ;
#29 = ADVANCED_BREP_SHAPE_REPRESENTATION ( '900008', ( #62, #97 ), #73 ) ;
#30 = LINE ( 'NONE', #227, #100 ) ;
#31 = FACE_OUTER_BOUND ( 'NONE', #63, .T. ) ;
#32 = CARTESIAN_POINT ( 'NONE',  ( -38.00000000000000000, -38.00000000000000711, 2.299999999999999822 ) ) ;
#33 = PLANE ( 'NONE',  #157 ) ;
#34 = DATE_AND_TIME ( #113, #21 ) ;
#35 = AXIS2_PLACEMENT_3D ( 'NONE', #180, #212, #127 ) ;
#36 = CC_DESIGN_APPROVAL ( #130, ( #232 ) ) ;
#37 = APPROVAL_STATUS ( 'not_yet_approved' ) ;
#38 = PERSON_AND_ORGANIZATION_ROLE ( 'creator' ) ;
#39 = APPROVAL_ROLE ( '' ) ;
#40 = ORIENTED_EDGE ( 'NONE', *, *, #136, .T. ) ;
#41 = PRODUCT_RELATED_PRODUCT_CATEGORY ( 'detail', '', ( #89 ) ) ;
#42 = CARTESIAN_POINT ( 'NONE',  ( 37.99999999999999289, 37.99999999999999289, 0.000000000000000000 ) ) ;
#43 = ORIENTED_EDGE ( 'NONE', *, *, #91, .F. ) ;
#44 = CC_DESIGN_PERSON_AND_ORGANIZATION_ASSIGNMENT ( #170, #132, ( #89 ) ) ;
#45 = VERTEX_POINT ( 'NONE', #42 ) ;
#46 = CARTESIAN_POINT ( 'NONE',  ( -38.00000000000000000, -38.00000000000000711, 0.000000000000000000 ) ) ;
#47 = VECTOR ( 'NONE', #147, 1000.000000000000000 ) ;
#48 = DIRECTION ( 'NONE',  ( -1.000000000000000000, -9.130123557772669567E-17, 0.000000000000000000 ) ) ;
#49 = VECTOR ( 'NONE', #231, 1000.000000000000000 ) ;
#50 = APPROVAL ( #202, 'Î´Ö¸¶¨' ) ;
#51 = FACE_OUTER_BOUND ( 'NONE', #134, .T. ) ;
#52 = CARTESIAN_POINT ( 'NONE',  ( 37.99999999999999289, 37.99999999999999289, 2.299999999999999822 ) ) ;
#53 = LINE ( 'NONE', #198, #5 ) ;
#54 = CC_DESIGN_APPROVAL ( #50, ( #93 ) ) ;
#55 = DATE_AND_TIME ( #20, #102 ) ;
#56 = COORDINATED_UNIVERSAL_TIME_OFFSET ( 8, 0, .AHEAD. ) ;
#57 = COORDINATED_UNIVERSAL_TIME_OFFSET ( 8, 0, .AHEAD. ) ;
#58 = PERSON_AND_ORGANIZATION ( #98, #153 ) ;
#59 = EDGE_CURVE ( 'NONE', #206, #22, #116, .T. ) ;
#60 = VERTEX_POINT ( 'NONE', #25 ) ;
#61 = VERTEX_POINT ( 'NONE', #190 ) ;
#62 = MANIFOLD_SOLID_BREP ( 'Í¹Ì¨-À­Éì1', #95 ) ;
#63 = EDGE_LOOP ( 'NONE', ( #4, #172, #43, #188 ) ) ;
#64 = ADVANCED_FACE ( 'NONE', ( #82 ), #230, .F. ) ;
#65 = ORIENTED_EDGE ( 'NONE', *, *, #159, .T. ) ;
#66 = CARTESIAN_POINT ( 'NONE',  ( -38.00000000000000711, 37.99999999999999289, 0.000000000000000000 ) ) ;
#67 = CARTESIAN_POINT ( 'NONE',  ( -38.00000000000000711, 37.99999999999999289, 2.299999999999999822 ) ) ;
#68 = DIRECTION ( 'NONE',  ( 0.000000000000000000, 1.000000000000000000, 0.000000000000000000 ) ) ;
#69 = DIRECTION ( 'NONE',  ( -9.130123557772669567E-17, 1.000000000000000000, -0.000000000000000000 ) ) ;
#70 = SECURITY_CLASSIFICATION ( '', '', #112 ) ;
#71 = DIRECTION ( 'NONE',  ( 0.000000000000000000, -1.000000000000000000, 0.000000000000000000 ) ) ;
#72 = APPROVAL_ROLE ( '' ) ;
#73 =( GEOMETRIC_REPRESENTATION_CONTEXT ( 3 ) GLOBAL_UNCERTAINTY_ASSIGNED_CONTEXT ( ( #128 ) ) GLOBAL_UNIT_ASSIGNED_CONTEXT ( ( #182, #165, #233 ) ) REPRESENTATION_CONTEXT ( 'NONE', 'WORKASPACE' ) );
#74 = EDGE_CURVE ( 'NONE', #60, #117, #103, .T. ) ;
#75 = APPROVAL_ROLE ( '' ) ;
#76 = APPROVAL ( #234, 'Î´Ö¸¶¨' ) ;
#77 = APPLICATION_PROTOCOL_DEFINITION ( 'international standard', 'config_control_design', 1994, #235 ) ;
#78 = LOCAL_TIME ( 14, 21, 50.00000000000000000, #129 ) ;
#79 = ORIENTED_EDGE ( 'NONE', *, *, #216, .T. ) ;
#80 = ORIENTED_EDGE ( 'NONE', *, *, #59, .F. ) ;
#81 = ORIENTED_EDGE ( 'NONE', *, *, #204, .F. ) ;
#82 = FACE_OUTER_BOUND ( 'NONE', #175, .T. ) ;
#83 = DIRECTION ( 'NONE',  ( -9.130123557772669567E-17, 1.000000000000000000, 0.000000000000000000 ) ) ;
#84 = CC_DESIGN_APPROVAL ( #76, ( #70 ) ) ;
#85 = CARTESIAN_POINT ( 'NONE',  ( -38.00000000000000711, 37.99999999999999289, 2.299999999999999822 ) ) ;
#86 = LINE ( 'NONE', #161, #221 ) ;
#87 = DIRECTION ( 'NONE',  ( 9.130123557772669567E-17, -1.000000000000000000, 0.000000000000000000 ) ) ;
#88 = CARTESIAN_POINT ( 'NONE',  ( 38.00000000000000000, -38.00000000000000711, 0.000000000000000000 ) ) ;
#89 = PRODUCT ( '900008', '900008', '', ( #96 ) ) ;
#90 = CARTESIAN_POINT ( 'NONE',  ( 0.000000000000000000, 0.000000000000000000, 0.000000000000000000 ) ) ;
#91 = EDGE_CURVE ( 'NONE', #22, #225, #123, .T. ) ;
#92 = COORDINATED_UNIVERSAL_TIME_OFFSET ( 8, 0, .AHEAD. ) ;
#93 = PRODUCT_DEFINITION ( 'Î´Öª', '', #232, #166 ) ;
#94 = DATE_AND_TIME ( #19, #24 ) ;
#95 = CLOSED_SHELL ( 'NONE', ( #199, #207, #64, #168, #156, #191 ) ) ;
#96 = MECHANICAL_CONTEXT ( 'NONE', #235, 'mechanical' ) ;
#97 = AXIS2_PLACEMENT_3D ( 'NONE', #90, #110, #149 ) ;
#98 = PERSON ( 'Î´Ö¸¶¨', 'Î´Ö¸¶¨', 'Î´Ö¸¶¨', ('Î´Ö¸¶¨'), ('Î´Ö¸¶¨'), ('Î´Ö¸¶¨') ) ;
#99 = ORIENTED_EDGE ( 'NONE', *, *, #177, .T. ) ;
#100 = VECTOR ( 'NONE', #178, 1000.000000000000000 ) ;
#101 = ORIENTED_EDGE ( 'NONE', *, *, #216, .F. ) ;
#102 = LOCAL_TIME ( 14, 21, 50.00000000000000000, #219 ) ;
#103 = LINE ( 'NONE', #46, #47 ) ;
#104 = DIRECTION ( 'NONE',  ( 0.000000000000000000, -0.000000000000000000, 1.000000000000000000 ) ) ;
#105 = PLANE ( 'NONE',  #173 ) ;
#106 = VECTOR ( 'NONE', #158, 1000.000000000000000 ) ;
#107 = FACE_OUTER_BOUND ( 'NONE', #154, .T. ) ;
#108 = CC_DESIGN_SECURITY_CLASSIFICATION ( #70, ( #232 ) ) ;
#109 = CARTESIAN_POINT ( 'NONE',  ( 38.00000000000000000, -38.00000000000000711, 2.299999999999999822 ) ) ;
#110 = DIRECTION ( 'NONE',  ( 0.000000000000000000, 0.000000000000000000, 1.000000000000000000 ) ) ;
#111 = PERSON_AND_ORGANIZATION_ROLE ( 'creator' ) ;
#112 = SECURITY_CLASSIFICATION_LEVEL ( 'unclassified' ) ;
#113 = CALENDAR_DATE ( 2025, 14, 10 ) ;
#114 = ORIENTED_EDGE ( 'NONE', *, *, #59, .T. ) ;
#115 = EDGE_CURVE ( 'NONE', #22, #60, #30, .T. ) ;
#116 = LINE ( 'NONE', #141, #7 ) ;
#117 = VERTEX_POINT ( 'NONE', #88 ) ;
#118 = CARTESIAN_POINT ( 'NONE',  ( 37.99999999999999289, 37.99999999999999289, 2.299999999999999822 ) ) ;
#119 = LINE ( 'NONE', #118, #125 ) ;
#120 = VECTOR ( 'NONE', #137, 1000.000000000000000 ) ;
#121 = DIRECTION ( 'NONE',  ( 1.000000000000000000, 0.000000000000000000, 0.000000000000000000 ) ) ;
#122 = LOCAL_TIME ( 14, 21, 50.00000000000000000, #57 ) ;
#123 = LINE ( 'NONE', #32, #211 ) ;
#124 = PLANE ( 'NONE',  #197 ) ;
#125 = VECTOR ( 'NONE', #152, 1000.000000000000000 ) ;
#126 = LINE ( 'NONE', #196, #49 ) ;
#127 = DIRECTION ( 'NONE',  ( 1.000000000000000000, 0.000000000000000000, 0.000000000000000000 ) ) ;
#128 = UNCERTAINTY_MEASURE_WITH_UNIT (LENGTH_MEASURE( 1.000000000000000082E-05 ), #182, 'distance_accuracy_value', 'NONE');
#129 = COORDINATED_UNIVERSAL_TIME_OFFSET ( 8, 0, .AHEAD. ) ;
#130 = APPROVAL ( #37, 'Î´Ö¸¶¨' ) ;
#131 = PERSON_AND_ORGANIZATION ( #98, #153 ) ;
#132 = PERSON_AND_ORGANIZATION_ROLE ( 'design_owner' ) ;
#133 = PERSON_AND_ORGANIZATION_ROLE ( 'classification_officer' ) ;
#134 = EDGE_LOOP ( 'NONE', ( #209, #140, #224, #174 ) ) ;
#135 = APPROVAL_PERSON_ORGANIZATION ( #236, #130, #72 ) ;
#136 = EDGE_CURVE ( 'NONE', #225, #208, #14, .T. ) ;
#137 = DIRECTION ( 'NONE',  ( 9.130123557772669567E-17, -1.000000000000000000, 0.000000000000000000 ) ) ;
#138 = CC_DESIGN_PERSON_AND_ORGANIZATION_ASSIGNMENT ( #131, #38, ( #93 ) ) ;
#139 = EDGE_LOOP ( 'NONE', ( #101, #6, #205, #81 ) ) ;
#140 = ORIENTED_EDGE ( 'NONE', *, *, #142, .F. ) ;
#141 = CARTESIAN_POINT ( 'NONE',  ( -38.00000000000000711, 37.99999999999999289, 2.299999999999999822 ) ) ;
#142 = EDGE_CURVE ( 'NONE', #206, #61, #53, .T. ) ;
#143 = DIRECTION ( 'NONE',  ( 1.000000000000000000, 9.130123557772669567E-17, -0.000000000000000000 ) ) ;
#144 = CARTESIAN_POINT ( 'NONE',  ( 38.00000000000000000, -38.00000000000000711, 2.299999999999999822 ) ) ;
#145 = AXIS2_PLACEMENT_3D ( 'NONE', #215, #68, #104 ) ;
#146 = PLANE ( 'NONE',  #35 ) ;
#147 = DIRECTION ( 'NONE',  ( 1.000000000000000000, 0.000000000000000000, 0.000000000000000000 ) ) ;
#148 = CALENDAR_DATE ( 2025, 14, 10 ) ;
#149 = DIRECTION ( 'NONE',  ( 1.000000000000000000, 0.000000000000000000, 0.000000000000000000 ) ) ;
#150 = DATE_AND_TIME ( #217, #78 ) ;
#151 = AXIS2_PLACEMENT_3D ( 'NONE', #67, #143, #83 ) ;
#152 = DIRECTION ( 'NONE',  ( -0.000000000000000000, -0.000000000000000000, -1.000000000000000000 ) ) ;
#153 = ORGANIZATION ( 'Î´Ö¸¶¨', 'Î´Ö¸¶¨', '' ) ;
#154 = EDGE_LOOP ( 'NONE', ( #79, #218, #2, #99 ) ) ;
#155 = ORIENTED_EDGE ( 'NONE', *, *, #115, .F. ) ;
#156 = ADVANCED_FACE ( 'NONE', ( #210 ), #33, .T. ) ;
#157 = AXIS2_PLACEMENT_3D ( 'NONE', #193, #28, #9 ) ;
#158 = DIRECTION ( 'NONE',  ( -1.000000000000000000, -0.000000000000000000, -0.000000000000000000 ) ) ;
#159 = EDGE_CURVE ( 'NONE', #208, #206, #176, .T. ) ;
#160 = VECTOR ( 'NONE', #69, 1000.000000000000000 ) ;
#161 = CARTESIAN_POINT ( 'NONE',  ( -38.00000000000000711, 37.99999999999999289, 0.000000000000000000 ) ) ;
#162 = CARTESIAN_POINT ( 'NONE',  ( -38.00000000000000711, 37.99999999999999289, 2.299999999999999822 ) ) ;
#163 = PRODUCT_DEFINITION_SHAPE ( 'NONE', 'NONE',  #93 ) ;
#164 = DIRECTION ( 'NONE',  ( -0.000000000000000000, -0.000000000000000000, -1.000000000000000000 ) ) ;
#165 =( NAMED_UNIT ( * ) PLANE_ANGLE_UNIT ( ) SI_UNIT ( $, .RADIAN. ) );
#166 = DESIGN_CONTEXT ( 'detailed design', #17, 'design' ) ;
#167 = PERSON_AND_ORGANIZATION ( #98, #153 ) ;
#168 = ADVANCED_FACE ( 'NONE', ( #31 ), #228, .F. ) ;
#169 = DATE_TIME_ROLE ( 'classification_date' ) ;
#170 = PERSON_AND_ORGANIZATION ( #98, #153 ) ;
#171 = CC_DESIGN_PERSON_AND_ORGANIZATION_ASSIGNMENT ( #187, #111, ( #232 ) ) ;
#172 = ORIENTED_EDGE ( 'NONE', *, *, #177, .F. ) ;
#173 = AXIS2_PLACEMENT_3D ( 'NONE', #10, #48, #87 ) ;
#174 = ORIENTED_EDGE ( 'NONE', *, *, #11, .T. ) ;
#175 = EDGE_LOOP ( 'NONE', ( #8, #155, #80, #27 ) ) ;
#176 = LINE ( 'NONE', #85, #106 ) ;
#177 = EDGE_CURVE ( 'NONE', #225, #117, #194, .T. ) ;
#178 = DIRECTION ( 'NONE',  ( -0.000000000000000000, -0.000000000000000000, -1.000000000000000000 ) ) ;
#179 = CC_DESIGN_PERSON_AND_ORGANIZATION_ASSIGNMENT ( #18, #186, ( #232 ) ) ;
#180 = CARTESIAN_POINT ( 'NONE',  ( 0.000000000000000000, 0.000000000000000000, 0.000000000000000000 ) ) ;
#181 = CARTESIAN_POINT ( 'NONE',  ( 37.99999999999999289, 37.99999999999999289, 2.299999999999999822 ) ) ;
#182 =( LENGTH_UNIT ( ) NAMED_UNIT ( * ) SI_UNIT ( .MILLI., .METRE. ) );
#183 = SHAPE_DEFINITION_REPRESENTATION ( #163, #29 ) ;
#184 = APPROVAL_PERSON_ORGANIZATION ( #167, #50, #39 ) ;
#185 = APPLICATION_PROTOCOL_DEFINITION ( 'international standard', 'config_control_design', 1994, #17 ) ;
#186 = PERSON_AND_ORGANIZATION_ROLE ( 'design_supplier' ) ;
#187 = PERSON_AND_ORGANIZATION ( #98, #153 ) ;
#188 = ORIENTED_EDGE ( 'NONE', *, *, #115, .T. ) ;
#189 = DIRECTION ( 'NONE',  ( 9.130123557772669567E-17, -1.000000000000000000, 0.000000000000000000 ) ) ;
#190 = CARTESIAN_POINT ( 'NONE',  ( -38.00000000000000711, 37.99999999999999289, 0.000000000000000000 ) ) ;
#191 = ADVANCED_FACE ( 'NONE', ( #195 ), #146, .F. ) ;
#192 = LINE ( 'NONE', #66, #120 ) ;
#193 = CARTESIAN_POINT ( 'NONE',  ( 0.000000000000000000, 0.000000000000000000, 2.299999999999999822 ) ) ;
#194 = LINE ( 'NONE', #144, #226 ) ;
#195 = FACE_OUTER_BOUND ( 'NONE', #139, .T. ) ;
#196 = CARTESIAN_POINT ( 'NONE',  ( 37.99999999999999289, 37.99999999999999289, 0.000000000000000000 ) ) ;
#197 = AXIS2_PLACEMENT_3D ( 'NONE', #162, #71, #214 ) ;
#198 = CARTESIAN_POINT ( 'NONE',  ( -38.00000000000000711, 37.99999999999999289, 2.299999999999999822 ) ) ;
#199 = ADVANCED_FACE ( 'NONE', ( #107 ), #105, .F. ) ;
#200 = DATE_TIME_ROLE ( 'creation_date' ) ;
#201 = APPROVAL_DATE_TIME ( #34, #50 ) ;
#202 = APPROVAL_STATUS ( 'not_yet_approved' ) ;
#203 = APPROVAL_DATE_TIME ( #150, #76 ) ;
#204 = EDGE_CURVE ( 'NONE', #45, #61, #86, .T. ) ;
#205 = ORIENTED_EDGE ( 'NONE', *, *, #26, .F. ) ;
#206 = VERTEX_POINT ( 'NONE', #213 ) ;
#207 = ADVANCED_FACE ( 'NONE', ( #51 ), #124, .F. ) ;
#208 = VERTEX_POINT ( 'NONE', #52 ) ;
#209 = ORIENTED_EDGE ( 'NONE', *, *, #204, .T. ) ;
#210 = FACE_OUTER_BOUND ( 'NONE', #223, .T. ) ;
#211 = VECTOR ( 'NONE', #121, 1000.000000000000000 ) ;
#212 = DIRECTION ( 'NONE',  ( -0.000000000000000000, 0.000000000000000000, 1.000000000000000000 ) ) ;
#213 = CARTESIAN_POINT ( 'NONE',  ( -38.00000000000000711, 37.99999999999999289, 2.299999999999999822 ) ) ;
#214 = DIRECTION ( 'NONE',  ( 0.000000000000000000, -0.000000000000000000, -1.000000000000000000 ) ) ;
#215 = CARTESIAN_POINT ( 'NONE',  ( -38.00000000000000000, -38.00000000000000711, 2.299999999999999822 ) ) ;
#216 = EDGE_CURVE ( 'NONE', #117, #45, #126, .T. ) ;
#217 = CALENDAR_DATE ( 2025, 14, 10 ) ;
#218 = ORIENTED_EDGE ( 'NONE', *, *, #11, .F. ) ;
#219 = COORDINATED_UNIVERSAL_TIME_OFFSET ( 8, 0, .AHEAD. ) ;
#220 = PERSON_AND_ORGANIZATION ( #98, #153 ) ;
#221 = VECTOR ( 'NONE', #229, 1000.000000000000000 ) ;
#222 = CARTESIAN_POINT ( 'NONE',  ( -38.00000000000000000, -38.00000000000000711, 2.299999999999999822 ) ) ;
#223 = EDGE_LOOP ( 'NONE', ( #40, #65, #114, #1 ) ) ;
#224 = ORIENTED_EDGE ( 'NONE', *, *, #159, .F. ) ;
#225 = VERTEX_POINT ( 'NONE', #109 ) ;
#226 = VECTOR ( 'NONE', #12, 1000.000000000000000 ) ;
#227 = CARTESIAN_POINT ( 'NONE',  ( -38.00000000000000000, -38.00000000000000711, 2.299999999999999822 ) ) ;
#228 = PLANE ( 'NONE',  #145 ) ;
#229 = DIRECTION ( 'NONE',  ( -1.000000000000000000, -0.000000000000000000, -0.000000000000000000 ) ) ;
#230 = PLANE ( 'NONE',  #151 ) ;
#231 = DIRECTION ( 'NONE',  ( -9.130123557772669567E-17, 1.000000000000000000, -0.000000000000000000 ) ) ;
#232 = PRODUCT_DEFINITION_FORMATION_WITH_SPECIFIED_SOURCE ( 'ÈÎºÎ', '', #89, .NOT_KNOWN. ) ;
#233 =( NAMED_UNIT ( * ) SI_UNIT ( $, .STERADIAN. ) SOLID_ANGLE_UNIT ( ) );
#234 = APPROVAL_STATUS ( 'not_yet_approved' ) ;
#235 = APPLICATION_CONTEXT ( 'configuration controlled 3d designs of mechanical parts and assemblies' ) ;
#236 = PERSON_AND_ORGANIZATION ( #98, #153 ) ;
#237 = DATE_AND_TIME ( #148, #122 ) ;
ENDSEC;
END-ISO-10303-21;
