ISO-10303-21;
HEADER;
FILE_DESCRIPTION (( 'STEP AP203' ),
    '1' );
FILE_NAME ('900010.STEP',
    '2025-10-14T06:22:25',
    ( 'Windows User' ),
    ( 'P R C' ),
    'SwSTEP 2.0',
    'SolidWorks 2020',
    '' );
FILE_SCHEMA (( 'CONFIG_CONTROL_DESIGN' ));
ENDSEC;

DATA;
#1 = CARTESIAN_POINT ( 'NONE',  ( 37.99999999999999289, 37.99999999999999289, 2.299999999999999822 ) ) ;
#2 = APPROVAL ( #99, 'Î´Ö¸¶¨' ) ;
#3 = VERTEX_POINT ( 'NONE', #1 ) ;
#4 = ORIENTED_EDGE ( 'NONE', *, *, #179, .T. ) ;
#5 = ORIENTED_EDGE ( 'NONE', *, *, #62, .T. ) ;
#6 = AXIS2_PLACEMENT_3D ( 'NONE', #14, #36, #128 ) ;
#7 = VECTOR ( 'NONE', #155, 1000.000000000000000 ) ;
#8 = PLANE ( 'NONE',  #100 ) ;
#9 = FACE_OUTER_BOUND ( 'NONE', #125, .T. ) ;
#10 = FACE_OUTER_BOUND ( 'NONE', #205, .T. ) ;
#11 = EDGE_CURVE ( 'NONE', #221, #45, #209, .T. ) ;
#12 =( NAMED_UNIT ( * ) SI_UNIT ( $, .STERADIAN. ) SOLID_ANGLE_UNIT ( ) );
#13 = LOCAL_TIME ( 14, 22, 25.00000000000000000, #38 ) ;
#14 = CARTESIAN_POINT ( 'NONE',  ( 0.000000000000000000, 0.000000000000000000, 2.299999999999999822 ) ) ;
#15 = CALENDAR_DATE ( 2025, 14, 10 ) ;
#16 = CC_DESIGN_PERSON_AND_ORGANIZATION_ASSIGNMENT ( #18, #119, ( #26 ) ) ;
#17 = APPLICATION_CONTEXT ( 'configuration controlled 3d designs of mechanical parts and assemblies' ) ;
#18 = PERSON_AND_ORGANIZATION ( #110, #129 ) ;
#19 = CC_DESIGN_PERSON_AND_ORGANIZATION_ASSIGNMENT ( #78, #200, ( #199 ) ) ;
#20 = PERSON_AND_ORGANIZATION ( #110, #129 ) ;
#21 = VECTOR ( 'NONE', #198, 1000.000000000000000 ) ;
#22 = ORIENTED_EDGE ( 'NONE', *, *, #67, .T. ) ;
#23 = APPROVAL_PERSON_ORGANIZATION ( #41, #140, #167 ) ;
#24 = ORIENTED_EDGE ( 'NONE', *, *, #11, .T. ) ;
#25 = CARTESIAN_POINT ( 'NONE',  ( -38.00000000000000000, -38.00000000000000711, 2.299999999999999822 ) ) ;
#26 = PRODUCT_DEFINITION_FORMATION_WITH_SPECIFIED_SOURCE ( 'ÈÎºÎ', '', #148, .NOT_KNOWN. ) ;
#27 = ORIENTED_EDGE ( 'NONE', *, *, #56, .T. ) ;
#28 = APPROVAL_PERSON_ORGANIZATION ( #61, #152, #235 ) ;
#29 = CC_DESIGN_PERSON_AND_ORGANIZATION_ASSIGNMENT ( #136, #168, ( #148 ) ) ;
#30 = LINE ( 'NONE', #46, #98 ) ;
#31 = CARTESIAN_POINT ( 'NONE',  ( -38.00000000000000000, -38.00000000000000711, 2.299999999999999822 ) ) ;
#32 = CC_DESIGN_APPROVAL ( #140, ( #199 ) ) ;
#33 = DIRECTION ( 'NONE',  ( 0.000000000000000000, -1.000000000000000000, 0.000000000000000000 ) ) ;
#34 = DIRECTION ( 'NONE',  ( 0.000000000000000000, -0.000000000000000000, 1.000000000000000000 ) ) ;
#35 = VECTOR ( 'NONE', #145, 1000.000000000000000 ) ;
#36 = DIRECTION ( 'NONE',  ( -0.000000000000000000, 0.000000000000000000, 1.000000000000000000 ) ) ;
#37 = COORDINATED_UNIVERSAL_TIME_OFFSET ( 8, 0, .AHEAD. ) ;
#38 = COORDINATED_UNIVERSAL_TIME_OFFSET ( 8, 0, .AHEAD. ) ;
#39 =( GEOMETRIC_REPRESENTATION_CONTEXT ( 3 ) GLOBAL_UNCERTAINTY_ASSIGNED_CONTEXT ( ( #184 ) ) GLOBAL_UNIT_ASSIGNED_CONTEXT ( ( #147, #111, #12 ) ) REPRESENTATION_CONTEXT ( 'NONE', 'WORKASPACE' ) );
#40 = APPROVAL_PERSON_ORGANIZATION ( #97, #2, #216 ) ;
#41 = PERSON_AND_ORGANIZATION ( #110, #129 ) ;
#42 = PERSON_AND_ORGANIZATION_ROLE ( 'design_supplier' ) ;
#43 = SHAPE_DEFINITION_REPRESENTATION ( #133, #75 ) ;
#44 = ORIENTED_EDGE ( 'NONE', *, *, #187, .F. ) ;
#45 = VERTEX_POINT ( 'NONE', #206 ) ;
#46 = CARTESIAN_POINT ( 'NONE',  ( -38.00000000000000711, 37.99999999999999289, 2.299999999999999822 ) ) ;
#47 = FACE_OUTER_BOUND ( 'NONE', #64, .T. ) ;
#48 = CARTESIAN_POINT ( 'NONE',  ( 0.000000000000000000, 0.000000000000000000, 0.000000000000000000 ) ) ;
#49 = LINE ( 'NONE', #114, #160 ) ;
#50 = AXIS2_PLACEMENT_3D ( 'NONE', #48, #176, #82 ) ;
#51 = CARTESIAN_POINT ( 'NONE',  ( -38.00000000000000711, 37.99999999999999289, 0.000000000000000000 ) ) ;
#52 = CARTESIAN_POINT ( 'NONE',  ( -38.00000000000000711, 37.99999999999999289, 2.299999999999999822 ) ) ;
#53 = LINE ( 'NONE', #109, #55 ) ;
#54 = DIRECTION ( 'NONE',  ( 0.000000000000000000, 1.000000000000000000, 0.000000000000000000 ) ) ;
#55 = VECTOR ( 'NONE', #180, 1000.000000000000000 ) ;
#56 = EDGE_CURVE ( 'NONE', #3, #101, #30, .T. ) ;
#57 = APPLICATION_PROTOCOL_DEFINITION ( 'international standard', 'config_control_design', 1994, #17 ) ;
#58 = DATE_TIME_ROLE ( 'creation_date' ) ;
#59 = PERSON_AND_ORGANIZATION_ROLE ( 'creator' ) ;
#60 = MECHANICAL_CONTEXT ( 'NONE', #17, 'mechanical' ) ;
#61 = PERSON_AND_ORGANIZATION ( #110, #129 ) ;
#62 = EDGE_CURVE ( 'NONE', #222, #63, #157, .T. ) ;
#63 = VERTEX_POINT ( 'NONE', #142 ) ;
#64 = EDGE_LOOP ( 'NONE', ( #175, #226, #141, #153 ) ) ;
#65 = CARTESIAN_POINT ( 'NONE',  ( -38.00000000000000711, 37.99999999999999289, 0.000000000000000000 ) ) ;
#66 = CARTESIAN_POINT ( 'NONE',  ( -38.00000000000000000, -38.00000000000000711, 0.000000000000000000 ) ) ;
#67 = EDGE_CURVE ( 'NONE', #106, #221, #207, .T. ) ;
#68 = ORIENTED_EDGE ( 'NONE', *, *, #67, .F. ) ;
#69 = CARTESIAN_POINT ( 'NONE',  ( 37.99999999999999289, 37.99999999999999289, 2.299999999999999822 ) ) ;
#70 = EDGE_CURVE ( 'NONE', #107, #45, #225, .T. ) ;
#71 = DIRECTION ( 'NONE',  ( 9.130123557772669567E-17, -1.000000000000000000, 0.000000000000000000 ) ) ;
#72 = DIRECTION ( 'NONE',  ( -0.000000000000000000, -0.000000000000000000, -1.000000000000000000 ) ) ;
#73 = LOCAL_TIME ( 14, 22, 25.00000000000000000, #219 ) ;
#74 = CARTESIAN_POINT ( 'NONE',  ( 38.00000000000000000, -38.00000000000000711, 2.299999999999999822 ) ) ;
#75 = ADVANCED_BREP_SHAPE_REPRESENTATION ( '900010', ( #172, #186 ), #39 ) ;
#76 = CALENDAR_DATE ( 2025, 14, 10 ) ;
#77 = ADVANCED_FACE ( 'NONE', ( #47 ), #124, .F. ) ;
#78 = PERSON_AND_ORGANIZATION ( #110, #129 ) ;
#79 = CLOSED_SHELL ( 'NONE', ( #163, #159, #204, #208, #117, #77 ) ) ;
#80 = CC_DESIGN_APPROVAL ( #2, ( #182 ) ) ;
#81 = DATE_AND_TIME ( #96, #90 ) ;
#82 = DIRECTION ( 'NONE',  ( 1.000000000000000000, 0.000000000000000000, 0.000000000000000000 ) ) ;
#83 = EDGE_CURVE ( 'NONE', #45, #222, #229, .T. ) ;
#84 = CARTESIAN_POINT ( 'NONE',  ( 38.00000000000000000, -38.00000000000000711, 2.299999999999999822 ) ) ;
#85 = EDGE_LOOP ( 'NONE', ( #210, #103, #122, #86 ) ) ;
#86 = ORIENTED_EDGE ( 'NONE', *, *, #201, .T. ) ;
#87 = ORIENTED_EDGE ( 'NONE', *, *, #70, .T. ) ;
#88 = CARTESIAN_POINT ( 'NONE',  ( -38.00000000000000000, -38.00000000000000711, 2.299999999999999822 ) ) ;
#89 = PLANE ( 'NONE',  #177 ) ;
#90 = LOCAL_TIME ( 14, 22, 25.00000000000000000, #183 ) ;
#91 = EDGE_CURVE ( 'NONE', #63, #107, #92, .T. ) ;
#92 = LINE ( 'NONE', #51, #164 ) ;
#93 = DATE_AND_TIME ( #15, #102 ) ;
#94 = DIRECTION ( 'NONE',  ( 1.000000000000000000, 0.000000000000000000, 0.000000000000000000 ) ) ;
#95 = PRODUCT_RELATED_PRODUCT_CATEGORY ( 'detail', '', ( #148 ) ) ;
#96 = CALENDAR_DATE ( 2025, 14, 10 ) ;
#97 = PERSON_AND_ORGANIZATION ( #110, #129 ) ;
#98 = VECTOR ( 'NONE', #191, 1000.000000000000000 ) ;
#99 = APPROVAL_STATUS ( 'not_yet_approved' ) ;
#100 = AXIS2_PLACEMENT_3D ( 'NONE', #230, #33, #131 ) ;
#101 = VERTEX_POINT ( 'NONE', #52 ) ;
#102 = LOCAL_TIME ( 14, 22, 25.00000000000000000, #237 ) ;
#103 = ORIENTED_EDGE ( 'NONE', *, *, #179, .F. ) ;
#104 = EDGE_LOOP ( 'NONE', ( #158, #27, #194, #22 ) ) ;
#105 = CC_DESIGN_SECURITY_CLASSIFICATION ( #199, ( #26 ) ) ;
#106 = VERTEX_POINT ( 'NONE', #88 ) ;
#107 = VERTEX_POINT ( 'NONE', #228 ) ;
#108 = PLANE ( 'NONE',  #234 ) ;
#109 = CARTESIAN_POINT ( 'NONE',  ( -38.00000000000000711, 37.99999999999999289, 2.299999999999999822 ) ) ;
#110 = PERSON ( 'Î´Ö¸¶¨', 'Î´Ö¸¶¨', 'Î´Ö¸¶¨', ('Î´Ö¸¶¨'), ('Î´Ö¸¶¨'), ('Î´Ö¸¶¨') ) ;
#111 =( NAMED_UNIT ( * ) PLANE_ANGLE_UNIT ( ) SI_UNIT ( $, .RADIAN. ) );
#112 = CC_DESIGN_PERSON_AND_ORGANIZATION_ASSIGNMENT ( #169, #42, ( #26 ) ) ;
#113 = DIRECTION ( 'NONE',  ( -9.130123557772669567E-17, 1.000000000000000000, 0.000000000000000000 ) ) ;
#114 = CARTESIAN_POINT ( 'NONE',  ( 37.99999999999999289, 37.99999999999999289, 2.299999999999999822 ) ) ;
#115 = CC_DESIGN_APPROVAL ( #152, ( #26 ) ) ;
#116 = APPROVAL_STATUS ( 'not_yet_approved' ) ;
#117 = ADVANCED_FACE ( 'NONE', ( #231 ), #130, .T. ) ;
#118 = APPLICATION_PROTOCOL_DEFINITION ( 'international standard', 'config_control_design', 1994, #121 ) ;
#119 = PERSON_AND_ORGANIZATION_ROLE ( 'creator' ) ;
#120 = ORIENTED_EDGE ( 'NONE', *, *, #215, .F. ) ;
#121 = APPLICATION_CONTEXT ( 'configuration controlled 3d designs of mechanical parts and assemblies' ) ;
#122 = ORIENTED_EDGE ( 'NONE', *, *, #135, .F. ) ;
#123 = DIRECTION ( 'NONE',  ( -1.000000000000000000, -0.000000000000000000, -0.000000000000000000 ) ) ;
#124 = PLANE ( 'NONE',  #50 ) ;
#125 = EDGE_LOOP ( 'NONE', ( #5, #139, #224, #173 ) ) ;
#126 = VECTOR ( 'NONE', #174, 1000.000000000000000 ) ;
#127 = FACE_OUTER_BOUND ( 'NONE', #85, .T. ) ;
#128 = DIRECTION ( 'NONE',  ( 1.000000000000000000, 0.000000000000000000, 0.000000000000000000 ) ) ;
#129 = ORGANIZATION ( 'Î´Ö¸¶¨', 'Î´Ö¸¶¨', '' ) ;
#130 = PLANE ( 'NONE',  #6 ) ;
#131 = DIRECTION ( 'NONE',  ( 0.000000000000000000, -0.000000000000000000, -1.000000000000000000 ) ) ;
#132 = VECTOR ( 'NONE', #123, 1000.000000000000000 ) ;
#133 = PRODUCT_DEFINITION_SHAPE ( 'NONE', 'NONE',  #182 ) ;
#134 = CARTESIAN_POINT ( 'NONE',  ( 37.99999999999999289, 37.99999999999999289, 2.299999999999999822 ) ) ;
#135 = EDGE_CURVE ( 'NONE', #101, #106, #197, .T. ) ;
#136 = PERSON_AND_ORGANIZATION ( #110, #129 ) ;
#137 = APPROVAL_DATE_TIME ( #81, #152 ) ;
#138 = APPROVAL_STATUS ( 'not_yet_approved' ) ;
#139 = ORIENTED_EDGE ( 'NONE', *, *, #201, .F. ) ;
#140 = APPROVAL ( #116, 'Î´Ö¸¶¨' ) ;
#141 = ORIENTED_EDGE ( 'NONE', *, *, #91, .F. ) ;
#142 = CARTESIAN_POINT ( 'NONE',  ( -38.00000000000000711, 37.99999999999999289, 0.000000000000000000 ) ) ;
#143 = DIRECTION ( 'NONE',  ( 1.000000000000000000, 0.000000000000000000, 0.000000000000000000 ) ) ;
#144 = CC_DESIGN_DATE_AND_TIME_ASSIGNMENT ( #93, #202, ( #199 ) ) ;
#145 = DIRECTION ( 'NONE',  ( 9.130123557772669567E-17, -1.000000000000000000, 0.000000000000000000 ) ) ;
#146 = DIRECTION ( 'NONE',  ( -9.130123557772669567E-17, 1.000000000000000000, -0.000000000000000000 ) ) ;
#147 =( LENGTH_UNIT ( ) NAMED_UNIT ( * ) SI_UNIT ( .MILLI., .METRE. ) );
#148 = PRODUCT ( '900010', '900010', '', ( #60 ) ) ;
#149 = FACE_OUTER_BOUND ( 'NONE', #156, .T. ) ;
#150 = CARTESIAN_POINT ( 'NONE',  ( 0.000000000000000000, 0.000000000000000000, 0.000000000000000000 ) ) ;
#151 = DIRECTION ( 'NONE',  ( 0.000000000000000000, 0.000000000000000000, 1.000000000000000000 ) ) ;
#152 = APPROVAL ( #138, 'Î´Ö¸¶¨' ) ;
#153 = ORIENTED_EDGE ( 'NONE', *, *, #62, .F. ) ;
#154 = VECTOR ( 'NONE', #143, 1000.000000000000000 ) ;
#155 = DIRECTION ( 'NONE',  ( -0.000000000000000000, -0.000000000000000000, -1.000000000000000000 ) ) ;
#156 = EDGE_LOOP ( 'NONE', ( #192, #44, #120, #24 ) ) ;
#157 = LINE ( 'NONE', #65, #132 ) ;
#158 = ORIENTED_EDGE ( 'NONE', *, *, #215, .T. ) ;
#159 = ADVANCED_FACE ( 'NONE', ( #9 ), #8, .F. ) ;
#160 = VECTOR ( 'NONE', #72, 1000.000000000000000 ) ;
#161 = DIRECTION ( 'NONE',  ( -9.130123557772669567E-17, 1.000000000000000000, -0.000000000000000000 ) ) ;
#162 = CARTESIAN_POINT ( 'NONE',  ( -38.00000000000000711, 37.99999999999999289, 2.299999999999999822 ) ) ;
#163 = ADVANCED_FACE ( 'NONE', ( #149 ), #178, .F. ) ;
#164 = VECTOR ( 'NONE', #71, 1000.000000000000000 ) ;
#165 = CARTESIAN_POINT ( 'NONE',  ( 37.99999999999999289, 37.99999999999999289, 0.000000000000000000 ) ) ;
#166 = CARTESIAN_POINT ( 'NONE',  ( -38.00000000000000000, -38.00000000000000711, 2.299999999999999822 ) ) ;
#167 = APPROVAL_ROLE ( '' ) ;
#168 = PERSON_AND_ORGANIZATION_ROLE ( 'design_owner' ) ;
#169 = PERSON_AND_ORGANIZATION ( #110, #129 ) ;
#170 = CC_DESIGN_PERSON_AND_ORGANIZATION_ASSIGNMENT ( #20, #59, ( #182 ) ) ;
#171 = CALENDAR_DATE ( 2025, 14, 10 ) ;
#172 = MANIFOLD_SOLID_BREP ( 'Í¹Ì¨-À­Éì1', #79 ) ;
#173 = ORIENTED_EDGE ( 'NONE', *, *, #187, .T. ) ;
#174 = DIRECTION ( 'NONE',  ( 1.000000000000000000, 0.000000000000000000, 0.000000000000000000 ) ) ;
#175 = ORIENTED_EDGE ( 'NONE', *, *, #83, .F. ) ;
#176 = DIRECTION ( 'NONE',  ( -0.000000000000000000, 0.000000000000000000, 1.000000000000000000 ) ) ;
#177 = AXIS2_PLACEMENT_3D ( 'NONE', #166, #54, #34 ) ;
#178 = PLANE ( 'NONE',  #227 ) ;
#179 = EDGE_CURVE ( 'NONE', #106, #107, #214, .T. ) ;
#180 = DIRECTION ( 'NONE',  ( -0.000000000000000000, -0.000000000000000000, -1.000000000000000000 ) ) ;
#181 = DIRECTION ( 'NONE',  ( 9.130123557772669567E-17, -1.000000000000000000, 0.000000000000000000 ) ) ;
#182 = PRODUCT_DEFINITION ( 'Î´Öª', '', #26, #217 ) ;
#183 = COORDINATED_UNIVERSAL_TIME_OFFSET ( 8, 0, .AHEAD. ) ;
#184 = UNCERTAINTY_MEASURE_WITH_UNIT (LENGTH_MEASURE( 1.000000000000000082E-05 ), #147, 'distance_accuracy_value', 'NONE');
#185 = DATE_AND_TIME ( #171, #73 ) ;
#186 = AXIS2_PLACEMENT_3D ( 'NONE', #150, #151, #94 ) ;
#187 = EDGE_CURVE ( 'NONE', #3, #222, #49, .T. ) ;
#188 = CALENDAR_DATE ( 2025, 14, 10 ) ;
#189 = VECTOR ( 'NONE', #146, 1000.000000000000000 ) ;
#190 = ORIENTED_EDGE ( 'NONE', *, *, #11, .F. ) ;
#191 = DIRECTION ( 'NONE',  ( -1.000000000000000000, -0.000000000000000000, -0.000000000000000000 ) ) ;
#192 = ORIENTED_EDGE ( 'NONE', *, *, #83, .T. ) ;
#193 = CC_DESIGN_DATE_AND_TIME_ASSIGNMENT ( #185, #58, ( #182 ) ) ;
#194 = ORIENTED_EDGE ( 'NONE', *, *, #135, .T. ) ;
#195 = DIRECTION ( 'NONE',  ( 1.000000000000000000, 9.130123557772669567E-17, -0.000000000000000000 ) ) ;
#196 = CARTESIAN_POINT ( 'NONE',  ( -38.00000000000000711, 37.99999999999999289, 2.299999999999999822 ) ) ;
#197 = LINE ( 'NONE', #196, #35 ) ;
#198 = DIRECTION ( 'NONE',  ( -0.000000000000000000, -0.000000000000000000, -1.000000000000000000 ) ) ;
#199 = SECURITY_CLASSIFICATION ( '', '', #236 ) ;
#200 = PERSON_AND_ORGANIZATION_ROLE ( 'classification_officer' ) ;
#201 = EDGE_CURVE ( 'NONE', #101, #63, #53, .T. ) ;
#202 = DATE_TIME_ROLE ( 'classification_date' ) ;
#203 = APPROVAL_DATE_TIME ( #218, #2 ) ;
#204 = ADVANCED_FACE ( 'NONE', ( #127 ), #108, .F. ) ;
#205 = EDGE_LOOP ( 'NONE', ( #87, #190, #68, #4 ) ) ;
#206 = CARTESIAN_POINT ( 'NONE',  ( 38.00000000000000000, -38.00000000000000711, 0.000000000000000000 ) ) ;
#207 = LINE ( 'NONE', #25, #126 ) ;
#208 = ADVANCED_FACE ( 'NONE', ( #10 ), #89, .F. ) ;
#209 = LINE ( 'NONE', #84, #7 ) ;
#210 = ORIENTED_EDGE ( 'NONE', *, *, #91, .T. ) ;
#211 = DIRECTION ( 'NONE',  ( -1.000000000000000000, -9.130123557772669567E-17, 0.000000000000000000 ) ) ;
#212 = VECTOR ( 'NONE', #161, 1000.000000000000000 ) ;
#213 = CARTESIAN_POINT ( 'NONE',  ( 37.99999999999999289, 37.99999999999999289, 0.000000000000000000 ) ) ;
#214 = LINE ( 'NONE', #31, #21 ) ;
#215 = EDGE_CURVE ( 'NONE', #221, #3, #232, .T. ) ;
#216 = APPROVAL_ROLE ( '' ) ;
#217 = DESIGN_CONTEXT ( 'detailed design', #121, 'design' ) ;
#218 = DATE_AND_TIME ( #188, #13 ) ;
#219 = COORDINATED_UNIVERSAL_TIME_OFFSET ( 8, 0, .AHEAD. ) ;
#220 = APPROVAL_DATE_TIME ( #233, #140 ) ;
#221 = VERTEX_POINT ( 'NONE', #74 ) ;
#222 = VERTEX_POINT ( 'NONE', #213 ) ;
#223 = LOCAL_TIME ( 14, 22, 25.00000000000000000, #37 ) ;
#224 = ORIENTED_EDGE ( 'NONE', *, *, #56, .F. ) ;
#225 = LINE ( 'NONE', #66, #154 ) ;
#226 = ORIENTED_EDGE ( 'NONE', *, *, #70, .F. ) ;
#227 = AXIS2_PLACEMENT_3D ( 'NONE', #69, #211, #181 ) ;
#228 = CARTESIAN_POINT ( 'NONE',  ( -38.00000000000000000, -38.00000000000000711, 0.000000000000000000 ) ) ;
#229 = LINE ( 'NONE', #165, #212 ) ;
#230 = CARTESIAN_POINT ( 'NONE',  ( -38.00000000000000711, 37.99999999999999289, 2.299999999999999822 ) ) ;
#231 = FACE_OUTER_BOUND ( 'NONE', #104, .T. ) ;
#232 = LINE ( 'NONE', #134, #189 ) ;
#233 = DATE_AND_TIME ( #76, #223 ) ;
#234 = AXIS2_PLACEMENT_3D ( 'NONE', #162, #195, #113 ) ;
#235 = APPROVAL_ROLE ( '' ) ;
#236 = SECURITY_CLASSIFICATION_LEVEL ( 'unclassified' ) ;
#237 = COORDINATED_UNIVERSAL_TIME_OFFSET ( 8, 0, .AHEAD. ) ;
ENDSEC;
END-ISO-10303-21;
