ISO-10303-21;
HEADER;
FILE_DESCRIPTION (( 'STEP AP203' ),
    '1' );
FILE_NAME ('900011.STEP',
    '2025-10-14T06:27:08',
    ( 'Windows User' ),
    ( 'P R C' ),
    'SwSTEP 2.0',
    'SolidWorks 2020',
    '' );
FILE_SCHEMA (( 'CONFIG_CONTROL_DESIGN' ));
ENDSEC;

DATA;
#1 = LOCAL_TIME ( 14, 27, 8.000000000000000000, #64 ) ;
#2 = LINE ( 'NONE', #6, #112 ) ;
#3 = CARTESIAN_POINT ( 'NONE',  ( 38.00000000000000000, -38.00000000000000711, 0.000000000000000000 ) ) ;
#4 = ADVANCED_FACE ( 'NONE', ( #50 ), #106, .F. ) ;
#5 = PERSON_AND_ORGANIZATION_ROLE ( 'design_owner' ) ;
#6 = CARTESIAN_POINT ( 'NONE',  ( -38.00000000000000000, -38.00000000000000711, 0.000000000000000000 ) ) ;
#7 = CALENDAR_DATE ( 2025, 14, 10 ) ;
#8 = APPLICATION_CONTEXT ( 'configuration controlled 3d designs of mechanical parts and assemblies' ) ;
#9 = COORDINATED_UNIVERSAL_TIME_OFFSET ( 8, 0, .AHEAD. ) ;
#10 = AXIS2_PLACEMENT_3D ( 'NONE', #182, #165, #180 ) ;
#11 = DATE_AND_TIME ( #30, #1 ) ;
#12 = APPROVAL_STATUS ( 'not_yet_approved' ) ;
#13 = ORIENTED_EDGE ( 'NONE', *, *, #171, .F. ) ;
#14 = DIRECTION ( 'NONE',  ( -1.000000000000000000, -9.130123557772669567E-17, 0.000000000000000000 ) ) ;
#15 = FACE_OUTER_BOUND ( 'NONE', #121, .T. ) ;
#16 = EDGE_CURVE ( 'NONE', #48, #119, #49, .T. ) ;
#17 = ORIENTED_EDGE ( 'NONE', *, *, #188, .F. ) ;
#18 = PRODUCT ( '900011', '900011', '', ( #131 ) ) ;
#19 = CC_DESIGN_DATE_AND_TIME_ASSIGNMENT ( #11, #79, ( #104 ) ) ;
#20 = CARTESIAN_POINT ( 'NONE',  ( -38.00000000000000711, 37.99999999999999289, 0.000000000000000000 ) ) ;
#21 = VECTOR ( 'NONE', #196, 1000.000000000000000 ) ;
#22 = DESIGN_CONTEXT ( 'detailed design', #120, 'design' ) ;
#23 = VERTEX_POINT ( 'NONE', #234 ) ;
#24 = DIRECTION ( 'NONE',  ( 1.000000000000000000, 9.130123557772669567E-17, -0.000000000000000000 ) ) ;
#25 = FACE_OUTER_BOUND ( 'NONE', #35, .T. ) ;
#26 = DIRECTION ( 'NONE',  ( 1.000000000000000000, 0.000000000000000000, 0.000000000000000000 ) ) ;
#27 = APPROVAL_DATE_TIME ( #114, #61 ) ;
#28 = AXIS2_PLACEMENT_3D ( 'NONE', #213, #14, #39 ) ;
#29 = DATE_AND_TIME ( #187, #31 ) ;
#30 = CALENDAR_DATE ( 2025, 14, 10 ) ;
#31 = LOCAL_TIME ( 14, 27, 8.000000000000000000, #9 ) ;
#32 = EDGE_LOOP ( 'NONE', ( #178, #224, #85, #69 ) ) ;
#33 = VERTEX_POINT ( 'NONE', #66 ) ;
#34 = VECTOR ( 'NONE', #144, 1000.000000000000000 ) ;
#35 = EDGE_LOOP ( 'NONE', ( #17, #47, #228, #211 ) ) ;
#36 = LINE ( 'NONE', #38, #45 ) ;
#37 = CARTESIAN_POINT ( 'NONE',  ( -38.00000000000000711, 37.99999999999999289, 2.299999999999999822 ) ) ;
#38 = CARTESIAN_POINT ( 'NONE',  ( -38.00000000000000711, 37.99999999999999289, 2.299999999999999822 ) ) ;
#39 = DIRECTION ( 'NONE',  ( 9.130123557772669567E-17, -1.000000000000000000, 0.000000000000000000 ) ) ;
#40 = LINE ( 'NONE', #110, #214 ) ;
#41 = CARTESIAN_POINT ( 'NONE',  ( 38.00000000000000000, -38.00000000000000711, 2.299999999999999822 ) ) ;
#42 = DIRECTION ( 'NONE',  ( 1.000000000000000000, 0.000000000000000000, 0.000000000000000000 ) ) ;
#43 = CC_DESIGN_PERSON_AND_ORGANIZATION_ASSIGNMENT ( #138, #209, ( #160 ) ) ;
#44 = COORDINATED_UNIVERSAL_TIME_OFFSET ( 8, 0, .AHEAD. ) ;
#45 = VECTOR ( 'NONE', #212, 1000.000000000000000 ) ;
#46 = APPROVAL_ROLE ( '' ) ;
#47 = ORIENTED_EDGE ( 'NONE', *, *, #198, .F. ) ;
#48 = VERTEX_POINT ( 'NONE', #20 ) ;
#49 = LINE ( 'NONE', #105, #21 ) ;
#50 = FACE_OUTER_BOUND ( 'NONE', #129, .T. ) ;
#51 = CC_DESIGN_DATE_AND_TIME_ASSIGNMENT ( #29, #97, ( #192 ) ) ;
#52 = DIRECTION ( 'NONE',  ( 0.000000000000000000, 1.000000000000000000, 0.000000000000000000 ) ) ;
#53 = CARTESIAN_POINT ( 'NONE',  ( -38.00000000000000711, 37.99999999999999289, 2.299999999999999822 ) ) ;
#54 = CARTESIAN_POINT ( 'NONE',  ( -38.00000000000000000, -38.00000000000000711, 0.000000000000000000 ) ) ;
#55 = AXIS2_PLACEMENT_3D ( 'NONE', #159, #84, #70 ) ;
#56 = DIRECTION ( 'NONE',  ( -0.000000000000000000, 0.000000000000000000, 1.000000000000000000 ) ) ;
#57 = EDGE_CURVE ( 'NONE', #77, #173, #218, .T. ) ;
#58 = MANIFOLD_SOLID_BREP ( 'Í¹Ì¨-À­Éì1', #72 ) ;
#59 = APPLICATION_PROTOCOL_DEFINITION ( 'international standard', 'config_control_design', 1994, #8 ) ;
#60 = CC_DESIGN_APPROVAL ( #210, ( #160 ) ) ;
#61 = APPROVAL ( #134, 'Î´Ö¸¶¨' ) ;
#62 = PERSON_AND_ORGANIZATION ( #94, #175 ) ;
#63 = LINE ( 'NONE', #237, #101 ) ;
#64 = COORDINATED_UNIVERSAL_TIME_OFFSET ( 8, 0, .AHEAD. ) ;
#65 = ORIENTED_EDGE ( 'NONE', *, *, #188, .T. ) ;
#66 = CARTESIAN_POINT ( 'NONE',  ( 38.00000000000000000, -38.00000000000000711, 2.299999999999999822 ) ) ;
#67 = VERTEX_POINT ( 'NONE', #53 ) ;
#68 = APPROVAL_PERSON_ORGANIZATION ( #166, #235, #46 ) ;
#69 = ORIENTED_EDGE ( 'NONE', *, *, #57, .T. ) ;
#70 = DIRECTION ( 'NONE',  ( 1.000000000000000000, 0.000000000000000000, 0.000000000000000000 ) ) ;
#71 = DIRECTION ( 'NONE',  ( 1.000000000000000000, 0.000000000000000000, 0.000000000000000000 ) ) ;
#72 = CLOSED_SHELL ( 'NONE', ( #4, #225, #216, #163, #124, #231 ) ) ;
#73 = FACE_OUTER_BOUND ( 'NONE', #100, .T. ) ;
#74 = CALENDAR_DATE ( 2025, 14, 10 ) ;
#75 = DATE_AND_TIME ( #7, #141 ) ;
#76 = SECURITY_CLASSIFICATION_LEVEL ( 'unclassified' ) ;
#77 = VERTEX_POINT ( 'NONE', #122 ) ;
#78 = LOCAL_TIME ( 14, 27, 8.000000000000000000, #44 ) ;
#79 = DATE_TIME_ROLE ( 'classification_date' ) ;
#80 = ADVANCED_BREP_SHAPE_REPRESENTATION ( '900011', ( #58, #145 ), #233 ) ;
#81 = COORDINATED_UNIVERSAL_TIME_OFFSET ( 8, 0, .AHEAD. ) ;
#82 = VECTOR ( 'NONE', #111, 1000.000000000000000 ) ;
#83 = FACE_OUTER_BOUND ( 'NONE', #140, .T. ) ;
#84 = DIRECTION ( 'NONE',  ( -0.000000000000000000, 0.000000000000000000, 1.000000000000000000 ) ) ;
#85 = ORIENTED_EDGE ( 'NONE', *, *, #170, .F. ) ;
#86 = PRODUCT_DEFINITION_SHAPE ( 'NONE', 'NONE',  #192 ) ;
#87 = EDGE_CURVE ( 'NONE', #23, #119, #194, .T. ) ;
#88 = APPROVAL_PERSON_ORGANIZATION ( #99, #210, #167 ) ;
#89 = ORIENTED_EDGE ( 'NONE', *, *, #148, .T. ) ;
#90 = DIRECTION ( 'NONE',  ( -0.000000000000000000, -0.000000000000000000, -1.000000000000000000 ) ) ;
#91 = DIRECTION ( 'NONE',  ( -9.130123557772669567E-17, 1.000000000000000000, -0.000000000000000000 ) ) ;
#92 = CC_DESIGN_PERSON_AND_ORGANIZATION_ASSIGNMENT ( #164, #5, ( #18 ) ) ;
#93 = CARTESIAN_POINT ( 'NONE',  ( 0.000000000000000000, 0.000000000000000000, 0.000000000000000000 ) ) ;
#94 = PERSON ( 'Î´Ö¸¶¨', 'Î´Ö¸¶¨', 'Î´Ö¸¶¨', ('Î´Ö¸¶¨'), ('Î´Ö¸¶¨'), ('Î´Ö¸¶¨') ) ;
#95 = PERSON_AND_ORGANIZATION ( #94, #175 ) ;
#96 = VECTOR ( 'NONE', #107, 1000.000000000000000 ) ;
#97 = DATE_TIME_ROLE ( 'creation_date' ) ;
#98 = ORIENTED_EDGE ( 'NONE', *, *, #87, .F. ) ;
#99 = PERSON_AND_ORGANIZATION ( #94, #175 ) ;
#100 = EDGE_LOOP ( 'NONE', ( #177, #98, #195, #89 ) ) ;
#101 = VECTOR ( 'NONE', #181, 1000.000000000000000 ) ;
#102 = PERSON_AND_ORGANIZATION ( #94, #175 ) ;
#103 = ORIENTED_EDGE ( 'NONE', *, *, #197, .T. ) ;
#104 = SECURITY_CLASSIFICATION ( '', '', #76 ) ;
#105 = CARTESIAN_POINT ( 'NONE',  ( -38.00000000000000711, 37.99999999999999289, 0.000000000000000000 ) ) ;
#106 = PLANE ( 'NONE',  #28 ) ;
#107 = DIRECTION ( 'NONE',  ( -1.000000000000000000, -0.000000000000000000, -0.000000000000000000 ) ) ;
#108 = UNCERTAINTY_MEASURE_WITH_UNIT (LENGTH_MEASURE( 1.000000000000000082E-05 ), #221, 'distance_accuracy_value', 'NONE');
#109 = CARTESIAN_POINT ( 'NONE',  ( -38.00000000000000711, 37.99999999999999289, 2.299999999999999822 ) ) ;
#110 = CARTESIAN_POINT ( 'NONE',  ( 37.99999999999999289, 37.99999999999999289, 0.000000000000000000 ) ) ;
#111 = DIRECTION ( 'NONE',  ( -0.000000000000000000, -0.000000000000000000, -1.000000000000000000 ) ) ;
#112 = VECTOR ( 'NONE', #71, 1000.000000000000000 ) ;
#113 = EDGE_CURVE ( 'NONE', #67, #23, #36, .T. ) ;
#114 = DATE_AND_TIME ( #74, #78 ) ;
#115 = AXIS2_PLACEMENT_3D ( 'NONE', #93, #56, #42 ) ;
#116 = APPROVAL_DATE_TIME ( #75, #210 ) ;
#117 = PERSON_AND_ORGANIZATION_ROLE ( 'creator' ) ;
#118 = CC_DESIGN_PERSON_AND_ORGANIZATION_ASSIGNMENT ( #102, #189, ( #104 ) ) ;
#119 = VERTEX_POINT ( 'NONE', #54 ) ;
#120 = APPLICATION_CONTEXT ( 'configuration controlled 3d designs of mechanical parts and assemblies' ) ;
#121 = EDGE_LOOP ( 'NONE', ( #193, #158, #127, #176 ) ) ;
#122 = CARTESIAN_POINT ( 'NONE',  ( 37.99999999999999289, 37.99999999999999289, 2.299999999999999822 ) ) ;
#123 = VECTOR ( 'NONE', #125, 1000.000000000000000 ) ;
#124 = ADVANCED_FACE ( 'NONE', ( #15 ), #200, .T. ) ;
#125 = DIRECTION ( 'NONE',  ( -0.000000000000000000, -0.000000000000000000, -1.000000000000000000 ) ) ;
#126 = LINE ( 'NONE', #37, #96 ) ;
#127 = ORIENTED_EDGE ( 'NONE', *, *, #113, .T. ) ;
#128 = CC_DESIGN_SECURITY_CLASSIFICATION ( #104, ( #160 ) ) ;
#129 = EDGE_LOOP ( 'NONE', ( #65, #191, #157, #103 ) ) ;
#130 =( NAMED_UNIT ( * ) PLANE_ANGLE_UNIT ( ) SI_UNIT ( $, .RADIAN. ) );
#131 = MECHANICAL_CONTEXT ( 'NONE', #8, 'mechanical' ) ;
#132 = CARTESIAN_POINT ( 'NONE',  ( 0.000000000000000000, 0.000000000000000000, 0.000000000000000000 ) ) ;
#133 = AXIS2_PLACEMENT_3D ( 'NONE', #162, #52, #174 ) ;
#134 = APPROVAL_STATUS ( 'not_yet_approved' ) ;
#135 = PERSON_AND_ORGANIZATION_ROLE ( 'design_supplier' ) ;
#136 = LOCAL_TIME ( 14, 27, 8.000000000000000000, #172 ) ;
#137 = CC_DESIGN_PERSON_AND_ORGANIZATION_ASSIGNMENT ( #95, #117, ( #192 ) ) ;
#138 = PERSON_AND_ORGANIZATION ( #94, #175 ) ;
#139 = CARTESIAN_POINT ( 'NONE',  ( 37.99999999999999289, 37.99999999999999289, 2.299999999999999822 ) ) ;
#140 = EDGE_LOOP ( 'NONE', ( #168, #226, #13, #199 ) ) ;
#141 = LOCAL_TIME ( 14, 27, 8.000000000000000000, #81 ) ;
#142 = DIRECTION ( 'NONE',  ( -1.000000000000000000, -0.000000000000000000, -0.000000000000000000 ) ) ;
#143 = LINE ( 'NONE', #236, #34 ) ;
#144 = DIRECTION ( 'NONE',  ( 1.000000000000000000, 0.000000000000000000, 0.000000000000000000 ) ) ;
#145 = AXIS2_PLACEMENT_3D ( 'NONE', #132, #222, #26 ) ;
#146 = CARTESIAN_POINT ( 'NONE',  ( -38.00000000000000711, 37.99999999999999289, 2.299999999999999822 ) ) ;
#147 = PLANE ( 'NONE',  #10 ) ;
#148 = EDGE_CURVE ( 'NONE', #67, #48, #161, .T. ) ;
#149 = EDGE_CURVE ( 'NONE', #173, #48, #179, .T. ) ;
#150 =( NAMED_UNIT ( * ) SI_UNIT ( $, .STERADIAN. ) SOLID_ANGLE_UNIT ( ) );
#151 = APPLICATION_PROTOCOL_DEFINITION ( 'international standard', 'config_control_design', 1994, #120 ) ;
#152 = APPROVAL_STATUS ( 'not_yet_approved' ) ;
#153 = APPROVAL_PERSON_ORGANIZATION ( #62, #61, #205 ) ;
#154 = APPROVAL_DATE_TIME ( #208, #235 ) ;
#155 = CALENDAR_DATE ( 2025, 14, 10 ) ;
#156 = VECTOR ( 'NONE', #90, 1000.000000000000000 ) ;
#157 = ORIENTED_EDGE ( 'NONE', *, *, #215, .F. ) ;
#158 = ORIENTED_EDGE ( 'NONE', *, *, #170, .T. ) ;
#159 = CARTESIAN_POINT ( 'NONE',  ( 0.000000000000000000, 0.000000000000000000, 2.299999999999999822 ) ) ;
#160 = PRODUCT_DEFINITION_FORMATION_WITH_SPECIFIED_SOURCE ( 'ÈÎºÎ', '', #18, .NOT_KNOWN. ) ;
#161 = LINE ( 'NONE', #109, #186 ) ;
#162 = CARTESIAN_POINT ( 'NONE',  ( -38.00000000000000000, -38.00000000000000711, 2.299999999999999822 ) ) ;
#163 = ADVANCED_FACE ( 'NONE', ( #83 ), #217, .F. ) ;
#164 = PERSON_AND_ORGANIZATION ( #94, #175 ) ;
#165 = DIRECTION ( 'NONE',  ( 0.000000000000000000, -1.000000000000000000, 0.000000000000000000 ) ) ;
#166 = PERSON_AND_ORGANIZATION ( #94, #175 ) ;
#167 = APPROVAL_ROLE ( '' ) ;
#168 = ORIENTED_EDGE ( 'NONE', *, *, #198, .T. ) ;
#169 = PERSON_AND_ORGANIZATION ( #94, #175 ) ;
#170 = EDGE_CURVE ( 'NONE', #77, #67, #126, .T. ) ;
#171 = EDGE_CURVE ( 'NONE', #23, #33, #143, .T. ) ;
#172 = COORDINATED_UNIVERSAL_TIME_OFFSET ( 8, 0, .AHEAD. ) ;
#173 = VERTEX_POINT ( 'NONE', #185 ) ;
#174 = DIRECTION ( 'NONE',  ( 0.000000000000000000, -0.000000000000000000, 1.000000000000000000 ) ) ;
#175 = ORGANIZATION ( 'Î´Ö¸¶¨', 'Î´Ö¸¶¨', '' ) ;
#176 = ORIENTED_EDGE ( 'NONE', *, *, #171, .T. ) ;
#177 = ORIENTED_EDGE ( 'NONE', *, *, #16, .T. ) ;
#178 = ORIENTED_EDGE ( 'NONE', *, *, #149, .T. ) ;
#179 = LINE ( 'NONE', #232, #203 ) ;
#180 = DIRECTION ( 'NONE',  ( 0.000000000000000000, -0.000000000000000000, -1.000000000000000000 ) ) ;
#181 = DIRECTION ( 'NONE',  ( -9.130123557772669567E-17, 1.000000000000000000, -0.000000000000000000 ) ) ;
#182 = CARTESIAN_POINT ( 'NONE',  ( -38.00000000000000711, 37.99999999999999289, 2.299999999999999822 ) ) ;
#183 = PRODUCT_RELATED_PRODUCT_CATEGORY ( 'detail', '', ( #18 ) ) ;
#184 = PLANE ( 'NONE',  #227 ) ;
#185 = CARTESIAN_POINT ( 'NONE',  ( 37.99999999999999289, 37.99999999999999289, 0.000000000000000000 ) ) ;
#186 = VECTOR ( 'NONE', #230, 1000.000000000000000 ) ;
#187 = CALENDAR_DATE ( 2025, 14, 10 ) ;
#188 = EDGE_CURVE ( 'NONE', #229, #173, #40, .T. ) ;
#189 = PERSON_AND_ORGANIZATION_ROLE ( 'classification_officer' ) ;
#190 = CC_DESIGN_APPROVAL ( #235, ( #104 ) ) ;
#191 = ORIENTED_EDGE ( 'NONE', *, *, #57, .F. ) ;
#192 = PRODUCT_DEFINITION ( 'Î´Öª', '', #160, #22 ) ;
#193 = ORIENTED_EDGE ( 'NONE', *, *, #215, .T. ) ;
#194 = LINE ( 'NONE', #219, #123 ) ;
#195 = ORIENTED_EDGE ( 'NONE', *, *, #113, .F. ) ;
#196 = DIRECTION ( 'NONE',  ( 9.130123557772669567E-17, -1.000000000000000000, 0.000000000000000000 ) ) ;
#197 = EDGE_CURVE ( 'NONE', #33, #229, #204, .T. ) ;
#198 = EDGE_CURVE ( 'NONE', #119, #229, #2, .T. ) ;
#199 = ORIENTED_EDGE ( 'NONE', *, *, #87, .T. ) ;
#200 = PLANE ( 'NONE',  #55 ) ;
#201 = PLANE ( 'NONE',  #115 ) ;
#202 = CC_DESIGN_PERSON_AND_ORGANIZATION_ASSIGNMENT ( #169, #135, ( #160 ) ) ;
#203 = VECTOR ( 'NONE', #142, 1000.000000000000000 ) ;
#204 = LINE ( 'NONE', #41, #82 ) ;
#205 = APPROVAL_ROLE ( '' ) ;
#206 = FACE_OUTER_BOUND ( 'NONE', #32, .T. ) ;
#207 = CC_DESIGN_APPROVAL ( #61, ( #192 ) ) ;
#208 = DATE_AND_TIME ( #155, #136 ) ;
#209 = PERSON_AND_ORGANIZATION_ROLE ( 'creator' ) ;
#210 = APPROVAL ( #12, 'Î´Ö¸¶¨' ) ;
#211 = ORIENTED_EDGE ( 'NONE', *, *, #149, .F. ) ;
#212 = DIRECTION ( 'NONE',  ( 9.130123557772669567E-17, -1.000000000000000000, 0.000000000000000000 ) ) ;
#213 = CARTESIAN_POINT ( 'NONE',  ( 37.99999999999999289, 37.99999999999999289, 2.299999999999999822 ) ) ;
#214 = VECTOR ( 'NONE', #91, 1000.000000000000000 ) ;
#215 = EDGE_CURVE ( 'NONE', #33, #77, #63, .T. ) ;
#216 = ADVANCED_FACE ( 'NONE', ( #73 ), #184, .F. ) ;
#217 = PLANE ( 'NONE',  #133 ) ;
#218 = LINE ( 'NONE', #139, #156 ) ;
#219 = CARTESIAN_POINT ( 'NONE',  ( -38.00000000000000000, -38.00000000000000711, 2.299999999999999822 ) ) ;
#220 = DIRECTION ( 'NONE',  ( -9.130123557772669567E-17, 1.000000000000000000, 0.000000000000000000 ) ) ;
#221 =( LENGTH_UNIT ( ) NAMED_UNIT ( * ) SI_UNIT ( .MILLI., .METRE. ) );
#222 = DIRECTION ( 'NONE',  ( 0.000000000000000000, 0.000000000000000000, 1.000000000000000000 ) ) ;
#223 = SHAPE_DEFINITION_REPRESENTATION ( #86, #80 ) ;
#224 = ORIENTED_EDGE ( 'NONE', *, *, #148, .F. ) ;
#225 = ADVANCED_FACE ( 'NONE', ( #206 ), #147, .F. ) ;
#226 = ORIENTED_EDGE ( 'NONE', *, *, #197, .F. ) ;
#227 = AXIS2_PLACEMENT_3D ( 'NONE', #146, #24, #220 ) ;
#228 = ORIENTED_EDGE ( 'NONE', *, *, #16, .F. ) ;
#229 = VERTEX_POINT ( 'NONE', #3 ) ;
#230 = DIRECTION ( 'NONE',  ( -0.000000000000000000, -0.000000000000000000, -1.000000000000000000 ) ) ;
#231 = ADVANCED_FACE ( 'NONE', ( #25 ), #201, .F. ) ;
#232 = CARTESIAN_POINT ( 'NONE',  ( -38.00000000000000711, 37.99999999999999289, 0.000000000000000000 ) ) ;
#233 =( GEOMETRIC_REPRESENTATION_CONTEXT ( 3 ) GLOBAL_UNCERTAINTY_ASSIGNED_CONTEXT ( ( #108 ) ) GLOBAL_UNIT_ASSIGNED_CONTEXT ( ( #221, #130, #150 ) ) REPRESENTATION_CONTEXT ( 'NONE', 'WORKASPACE' ) );
#234 = CARTESIAN_POINT ( 'NONE',  ( -38.00000000000000000, -38.00000000000000711, 2.299999999999999822 ) ) ;
#235 = APPROVAL ( #152, 'Î´Ö¸¶¨' ) ;
#236 = CARTESIAN_POINT ( 'NONE',  ( -38.00000000000000000, -38.00000000000000711, 2.299999999999999822 ) ) ;
#237 = CARTESIAN_POINT ( 'NONE',  ( 37.99999999999999289, 37.99999999999999289, 2.299999999999999822 ) ) ;
ENDSEC;
END-ISO-10303-21;
