ISO-10303-21;
HEADER;
FILE_DESCRIPTION (( 'STEP AP203' ),
    '1' );
FILE_NAME ('693050.STEP',
    '2025-12-22T03:21:33',
    ( 'Windows User' ),
    ( 'P R C' ),
    'SwSTEP 2.0',
    'SolidWorks 2020',
    '' );
FILE_SCHEMA (( 'CONFIG_CONTROL_DESIGN' ));
ENDSEC;

DATA;
#1 = FACE_BOUND ( 'NONE', #183, .T. ) ;
#2 = CC_DESIGN_APPROVAL ( #299, ( #355 ) ) ;
#3 = DIRECTION ( 'NONE',  ( 0.000000000000000000, 0.000000000000000000, 1.000000000000000000 ) ) ;
#4 = CARTESIAN_POINT ( 'NONE',  ( 21.14000000000001123, 0.000000000000000000, 0.000000000000000000 ) ) ;
#5 = EDGE_LOOP ( 'NONE', ( #82 ) ) ;
#6 = CC_DESIGN_PERSON_AND_ORGANIZATION_ASSIGNMENT ( #77, #321, ( #56 ) ) ;
#7 = APPROVAL_STATUS ( 'not_yet_approved' ) ;
#8 = CARTESIAN_POINT ( 'NONE',  ( 5.540000000000000036, 0.000000000000000000, 0.000000000000000000 ) ) ;
#9 = EDGE_LOOP ( 'NONE', ( #76 ) ) ;
#10 = DIRECTION ( 'NONE',  ( -1.000000000000000000, -0.000000000000000000, -0.000000000000000000 ) ) ;
#11 = EDGE_LOOP ( 'NONE', ( #248 ) ) ;
#12 = APPROVAL_ROLE ( '' ) ;
#13 = EDGE_CURVE ( 'NONE', #46, #46, #89, .T. ) ;
#14 = AXIS2_PLACEMENT_3D ( 'NONE', #59, #228, #391 ) ;
#15 = DIRECTION ( 'NONE',  ( 0.000000000000000000, 0.000000000000000000, -1.000000000000000000 ) ) ;
#16 = ORIENTED_EDGE ( 'NONE', *, *, #17, .T. ) ;
#17 = EDGE_CURVE ( 'NONE', #406, #406, #295, .T. ) ;
#18 = DIRECTION ( 'NONE',  ( 1.000000000000000000, 0.000000000000000000, 0.000000000000000000 ) ) ;
#19 = EDGE_LOOP ( 'NONE', ( #256 ) ) ;
#20 = CARTESIAN_POINT ( 'NONE',  ( 5.039999999999985825, 0.000000000000000000, -25.00000000000000000 ) ) ;
#21 = EDGE_LOOP ( 'NONE', ( #281 ) ) ;
#22 = DIRECTION ( 'NONE',  ( -1.000000000000000000, 0.000000000000000000, 0.000000000000000000 ) ) ;
#23 = CC_DESIGN_PERSON_AND_ORGANIZATION_ASSIGNMENT ( #146, #409, ( #355 ) ) ;
#24 = DIRECTION ( 'NONE',  ( 1.000000000000000000, 0.000000000000000000, 0.000000000000000000 ) ) ;
#25 = CONICAL_SURFACE ( 'NONE', #116, 24.00000000000001776, 0.7853981633974344012 ) ;
#26 = DIRECTION ( 'NONE',  ( 0.000000000000000000, 0.000000000000000000, -1.000000000000000000 ) ) ;
#27 = ADVANCED_FACE ( 'NONE', ( #86, #322 ), #163, .T. ) ;
#28 = DIRECTION ( 'NONE',  ( 1.000000000000000000, -0.000000000000000000, -0.000000000000000000 ) ) ;
#29 = EDGE_CURVE ( 'NONE', #280, #280, #365, .T. ) ;
#30 = FACE_OUTER_BOUND ( 'NONE', #21, .T. ) ;
#31 = PLANE ( 'NONE',  #429 ) ;
#32 = APPROVAL_PERSON_ORGANIZATION ( #387, #381, #246 ) ;
#33 = CARTESIAN_POINT ( 'NONE',  ( 16.83999999999999986, 0.000000000000000000, 0.000000000000000000 ) ) ;
#34 = CIRCLE ( 'NONE', #148, 18.49999999999999645 ) ;
#35 = DIRECTION ( 'NONE',  ( 0.000000000000000000, 0.000000000000000000, -1.000000000000000000 ) ) ;
#36 = AXIS2_PLACEMENT_3D ( 'NONE', #69, #204, #338 ) ;
#37 = DIRECTION ( 'NONE',  ( 0.000000000000000000, 0.000000000000000000, -1.000000000000000000 ) ) ;
#38 = AXIS2_PLACEMENT_3D ( 'NONE', #434, #233, #432 ) ;
#39 = DIRECTION ( 'NONE',  ( -1.000000000000000000, 0.000000000000000000, 0.000000000000000000 ) ) ;
#40 = APPROVAL_DATE_TIME ( #211, #299 ) ;
#41 = DIRECTION ( 'NONE',  ( 0.000000000000000000, 0.000000000000000000, -1.000000000000000000 ) ) ;
#42 = EDGE_LOOP ( 'NONE', ( #347 ) ) ;
#43 = DIRECTION ( 'NONE',  ( 0.000000000000000000, 0.000000000000000000, 1.000000000000000000 ) ) ;
#44 = ORIENTED_EDGE ( 'NONE', *, *, #80, .F. ) ;
#45 = PERSON_AND_ORGANIZATION_ROLE ( 'design_owner' ) ;
#46 = VERTEX_POINT ( 'NONE', #207 ) ;
#47 = ORIENTED_EDGE ( 'NONE', *, *, #29, .F. ) ;
#48 = EDGE_CURVE ( 'NONE', #179, #179, #34, .T. ) ;
#49 = VERTEX_POINT ( 'NONE', #185 ) ;
#50 = ORIENTED_EDGE ( 'NONE', *, *, #156, .F. ) ;
#51 = CIRCLE ( 'NONE', #162, 25.00000000000000000 ) ;
#52 = CARTESIAN_POINT ( 'NONE',  ( 3.061616997868380183E-16, 0.000000000000000000, 22.00000000000000000 ) ) ;
#53 = EDGE_LOOP ( 'NONE', ( #315 ) ) ;
#54 = ADVANCED_FACE ( 'NONE', ( #361, #30 ), #220, .F. ) ;
#55 = DIRECTION ( 'NONE',  ( 0.000000000000000000, 0.000000000000000000, -1.000000000000000000 ) ) ;
#56 = PRODUCT_DEFINITION_FORMATION_WITH_SPECIFIED_SOURCE ( 'ÈÎºÎ', '', #170, .NOT_KNOWN. ) ;
#57 = AXIS2_PLACEMENT_3D ( 'NONE', #260, #127, #393 ) ;
#58 = FACE_BOUND ( 'NONE', #180, .T. ) ;
#59 = CARTESIAN_POINT ( 'NONE',  ( 1.811318508898485780, 0.000000000000000000, 0.000000000000000000 ) ) ;
#60 = CARTESIAN_POINT ( 'NONE',  ( 0.5000000000000004441, 0.000000000000000000, 0.000000000000000000 ) ) ;
#61 = ADVANCED_FACE ( 'NONE', ( #223, #58 ), #425, .T. ) ;
#62 = FACE_OUTER_BOUND ( 'NONE', #208, .T. ) ;
#63 = FACE_BOUND ( 'NONE', #118, .T. ) ;
#64 = FACE_OUTER_BOUND ( 'NONE', #386, .T. ) ;
#65 = CARTESIAN_POINT ( 'NONE',  ( 21.64000000000000057, 0.000000000000000000, 0.000000000000000000 ) ) ;
#66 = ORIENTED_EDGE ( 'NONE', *, *, #263, .T. ) ;
#67 = AXIS2_PLACEMENT_3D ( 'NONE', #124, #326, #259 ) ;
#68 = EDGE_LOOP ( 'NONE', ( #214 ) ) ;
#69 = CARTESIAN_POINT ( 'NONE',  ( 16.83999999999999986, 0.000000000000000000, 0.000000000000000000 ) ) ;
#70 = COORDINATED_UNIVERSAL_TIME_OFFSET ( 8, 0, .AHEAD. ) ;
#71 = ADVANCED_FACE ( 'NONE', ( #427, #195 ), #90, .T. ) ;
#72 = CARTESIAN_POINT ( 'NONE',  ( 192.8364730834423995, 0.000000000000000000, 0.000000000000000000 ) ) ;
#73 = ORGANIZATION ( 'Î´Ö¸¶¨', 'Î´Ö¸¶¨', '' ) ;
#74 = DIRECTION ( 'NONE',  ( 1.000000000000000000, 0.000000000000000000, 0.000000000000000000 ) ) ;
#75 = FACE_OUTER_BOUND ( 'NONE', #341, .T. ) ;
#76 = ORIENTED_EDGE ( 'NONE', *, *, #229, .F. ) ;
#77 = PERSON_AND_ORGANIZATION ( #241, #73 ) ;
#78 = DIRECTION ( 'NONE',  ( 0.000000000000000000, 0.000000000000000000, -1.000000000000000000 ) ) ;
#79 = ORIENTED_EDGE ( 'NONE', *, *, #139, .F. ) ;
#80 = EDGE_CURVE ( 'NONE', #308, #308, #278, .T. ) ;
#81 = CARTESIAN_POINT ( 'NONE',  ( 0.000000000000000000, 0.000000000000000000, -24.49999999999999645 ) ) ;
#82 = ORIENTED_EDGE ( 'NONE', *, *, #139, .T. ) ;
#83 = VERTEX_POINT ( 'NONE', #218 ) ;
#84 = EDGE_LOOP ( 'NONE', ( #351 ) ) ;
#85 = CC_DESIGN_DATE_AND_TIME_ASSIGNMENT ( #257, #209, ( #194 ) ) ;
#86 = FACE_OUTER_BOUND ( 'NONE', #380, .T. ) ;
#87 = APPROVAL_DATE_TIME ( #370, #101 ) ;
#88 = DIRECTION ( 'NONE',  ( 0.000000000000000000, 0.000000000000000000, 1.000000000000000000 ) ) ;
#89 = CIRCLE ( 'NONE', #392, 24.00000000000001776 ) ;
#90 = CYLINDRICAL_SURFACE ( 'NONE', #373, 19.00000000000000000 ) ;
#91 = EDGE_CURVE ( 'NONE', #379, #379, #312, .T. ) ;
#92 = CARTESIAN_POINT ( 'NONE',  ( 21.64000000000000057, 0.000000000000000000, 0.000000000000000000 ) ) ;
#93 = EDGE_CURVE ( 'NONE', #49, #49, #192, .T. ) ;
#94 = DIRECTION ( 'NONE',  ( 1.000000000000000000, -0.000000000000000000, -0.000000000000000000 ) ) ;
#95 = AXIS2_PLACEMENT_3D ( 'NONE', #403, #3, #74 ) ;
#96 = CC_DESIGN_PERSON_AND_ORGANIZATION_ASSIGNMENT ( #238, #113, ( #194 ) ) ;
#97 = FACE_BOUND ( 'NONE', #285, .T. ) ;
#98 = AXIS2_PLACEMENT_3D ( 'NONE', #131, #264, #55 ) ;
#99 = CARTESIAN_POINT ( 'NONE',  ( 21.64000000000000057, 0.000000000000000000, 0.000000000000000000 ) ) ;
#100 = CARTESIAN_POINT ( 'NONE',  ( 12.33999999999999986, 0.000000000000000000, 0.000000000000000000 ) ) ;
#101 = APPROVAL ( #413, 'Î´Ö¸¶¨' ) ;
#102 = DATE_AND_TIME ( #221, #390 ) ;
#103 = FACE_BOUND ( 'NONE', #19, .T. ) ;
#104 = DESIGN_CONTEXT ( 'detailed design', #128, 'design' ) ;
#105 = APPLICATION_PROTOCOL_DEFINITION ( 'international standard', 'config_control_design', 1994, #412 ) ;
#106 = VERTEX_POINT ( 'NONE', #383 ) ;
#107 = CC_DESIGN_APPROVAL ( #381, ( #194 ) ) ;
#108 = ORIENTED_EDGE ( 'NONE', *, *, #93, .T. ) ;
#109 = AXIS2_PLACEMENT_3D ( 'NONE', #423, #193, #122 ) ;
#110 = PERSON_AND_ORGANIZATION ( #241, #73 ) ;
#111 = CARTESIAN_POINT ( 'NONE',  ( 13.84000000000000163, 0.000000000000000000, 0.000000000000000000 ) ) ;
#112 = EDGE_LOOP ( 'NONE', ( #145 ) ) ;
#113 = PERSON_AND_ORGANIZATION_ROLE ( 'creator' ) ;
#114 = CARTESIAN_POINT ( 'NONE',  ( 16.83999999999999986, 0.000000000000000000, -18.49999999999999645 ) ) ;
#115 = ORIENTED_EDGE ( 'NONE', *, *, #368, .T. ) ;
#116 = AXIS2_PLACEMENT_3D ( 'NONE', #320, #157, #234 ) ;
#117 = CARTESIAN_POINT ( 'NONE',  ( 16.33999999999998565, 0.000000000000000000, -19.00000000000000000 ) ) ;
#118 = EDGE_LOOP ( 'NONE', ( #44 ) ) ;
#119 = LOCAL_TIME ( 11, 21, 33.00000000000000000, #70 ) ;
#120 = VERTEX_POINT ( 'NONE', #420 ) ;
#121 = EDGE_LOOP ( 'NONE', ( #250 ) ) ;
#122 = DIRECTION ( 'NONE',  ( 0.000000000000000000, 0.000000000000000000, 1.000000000000000000 ) ) ;
#123 = AXIS2_PLACEMENT_3D ( 'NONE', #331, #435, #37 ) ;
#124 = CARTESIAN_POINT ( 'NONE',  ( 16.83999999999999986, 0.000000000000000000, 0.000000000000000000 ) ) ;
#125 = APPROVAL_PERSON_ORGANIZATION ( #181, #101, #12 ) ;
#126 = DIRECTION ( 'NONE',  ( 0.000000000000000000, 0.000000000000000000, -1.000000000000000000 ) ) ;
#127 = DIRECTION ( 'NONE',  ( 1.000000000000000000, 0.000000000000000000, 0.000000000000000000 ) ) ;
#128 = APPLICATION_CONTEXT ( 'configuration controlled 3d designs of mechanical parts and assemblies' ) ;
#129 = CIRCLE ( 'NONE', #201, 18.50000000000000000 ) ;
#130 = AXIS2_PLACEMENT_3D ( 'NONE', #92, #226, #358 ) ;
#131 = CARTESIAN_POINT ( 'NONE',  ( 16.83999999999999986, 0.000000000000000000, 0.000000000000000000 ) ) ;
#132 = AXIS2_PLACEMENT_3D ( 'NONE', #72, #271, #43 ) ;
#133 = FACE_OUTER_BOUND ( 'NONE', #155, .T. ) ;
#134 = AXIS2_PLACEMENT_3D ( 'NONE', #135, #236, #230 ) ;
#135 = CARTESIAN_POINT ( 'NONE',  ( 3.061616997868380183E-16, 0.000000000000000000, 0.000000000000000000 ) ) ;
#136 = APPROVAL_DATE_TIME ( #354, #381 ) ;
#137 = CC_DESIGN_SECURITY_CLASSIFICATION ( #355, ( #56 ) ) ;
#138 = DIRECTION ( 'NONE',  ( 0.000000000000000000, 0.000000000000000000, -1.000000000000000000 ) ) ;
#139 = EDGE_CURVE ( 'NONE', #314, #314, #171, .T. ) ;
#140 = PRODUCT_DEFINITION_SHAPE ( 'NONE', 'NONE',  #194 ) ;
#141 =( NAMED_UNIT ( * ) SI_UNIT ( $, .STERADIAN. ) SOLID_ANGLE_UNIT ( ) );
#142 = DIRECTION ( 'NONE',  ( -1.000000000000000000, 0.000000000000000000, 0.000000000000000000 ) ) ;
#143 = VERTEX_POINT ( 'NONE', #252 ) ;
#144 = CONICAL_SURFACE ( 'NONE', #388, 25.00000000000000000, 0.7853981633974517207 ) ;
#145 = ORIENTED_EDGE ( 'NONE', *, *, #217, .F. ) ;
#146 = PERSON_AND_ORGANIZATION ( #241, #73 ) ;
#147 = EDGE_LOOP ( 'NONE', ( #47 ) ) ;
#148 = AXIS2_PLACEMENT_3D ( 'NONE', #158, #196, #289 ) ;
#149 =( LENGTH_UNIT ( ) NAMED_UNIT ( * ) SI_UNIT ( .MILLI., .METRE. ) );
#150 = FACE_OUTER_BOUND ( 'NONE', #219, .T. ) ;
#151 = ORIENTED_EDGE ( 'NONE', *, *, #251, .F. ) ;
#152 = SPHERICAL_SURFACE ( 'NONE', #382, 86.46535290413298469 ) ;
#153 = CC_DESIGN_PERSON_AND_ORGANIZATION_ASSIGNMENT ( #400, #45, ( #170 ) ) ;
#154 = ORIENTED_EDGE ( 'NONE', *, *, #251, .T. ) ;
#155 = EDGE_LOOP ( 'NONE', ( #115 ) ) ;
#156 = EDGE_CURVE ( 'NONE', #340, #340, #298, .T. ) ;
#157 = DIRECTION ( 'NONE',  ( -1.000000000000000000, 0.000000000000000000, 0.000000000000000000 ) ) ;
#158 = CARTESIAN_POINT ( 'NONE',  ( 16.83999999999999986, 0.000000000000000000, 0.000000000000000000 ) ) ;
#159 = CIRCLE ( 'NONE', #424, 18.50000000000000000 ) ;
#160 = CARTESIAN_POINT ( 'NONE',  ( 0.000000000000000000, 0.000000000000000000, 0.000000000000000000 ) ) ;
#161 = CARTESIAN_POINT ( 'NONE',  ( 0.000000000000000000, 0.000000000000000000, 0.000000000000000000 ) ) ;
#162 = AXIS2_PLACEMENT_3D ( 'NONE', #294, #329, #173 ) ;
#163 = CYLINDRICAL_SURFACE ( 'NONE', #109, 18.00000000000000000 ) ;
#164 = DIRECTION ( 'NONE',  ( -1.000000000000000000, -0.000000000000000000, -0.000000000000000000 ) ) ;
#165 = LOCAL_TIME ( 11, 21, 33.00000000000000000, #405 ) ;
#166 = DIRECTION ( 'NONE',  ( 0.000000000000000000, 0.000000000000000000, -1.000000000000000000 ) ) ;
#167 = AXIS2_PLACEMENT_3D ( 'NONE', #292, #22, #126 ) ;
#168 = DIRECTION ( 'NONE',  ( 1.000000000000000000, 0.000000000000000000, 0.000000000000000000 ) ) ;
#169 = EDGE_LOOP ( 'NONE', ( #66 ) ) ;
#170 = PRODUCT ( '693050', '693050', '', ( #304 ) ) ;
#171 = CIRCLE ( 'NONE', #130, 17.50000000000002132 ) ;
#172 = APPROVAL_STATUS ( 'not_yet_approved' ) ;
#173 = DIRECTION ( 'NONE',  ( 0.000000000000000000, 0.000000000000000000, -1.000000000000000000 ) ) ;
#174 = PERSON_AND_ORGANIZATION ( #241, #73 ) ;
#175 = FACE_OUTER_BOUND ( 'NONE', #84, .T. ) ;
#176 = ORIENTED_EDGE ( 'NONE', *, *, #48, .F. ) ;
#177 = ADVANCED_FACE ( 'NONE', ( #394, #62 ), #197, .T. ) ;
#178 =( NAMED_UNIT ( * ) PLANE_ANGLE_UNIT ( ) SI_UNIT ( $, .RADIAN. ) );
#179 = VERTEX_POINT ( 'NONE', #114 ) ;
#180 = EDGE_LOOP ( 'NONE', ( #279 ) ) ;
#181 = PERSON_AND_ORGANIZATION ( #241, #73 ) ;
#182 = CARTESIAN_POINT ( 'NONE',  ( 1.811318508898485780, 0.000000000000000000, 22.00000000000000000 ) ) ;
#183 = EDGE_LOOP ( 'NONE', ( #411 ) ) ;
#184 = EDGE_CURVE ( 'NONE', #143, #143, #213, .T. ) ;
#185 = CARTESIAN_POINT ( 'NONE',  ( 5.540000000000000036, 0.000000000000000000, -24.50000000000000000 ) ) ;
#186 = EDGE_LOOP ( 'NONE', ( #421 ) ) ;
#187 = ADVANCED_FACE ( 'NONE', ( #288, #191 ), #25, .T. ) ;
#188 = VERTEX_POINT ( 'NONE', #239 ) ;
#189 = EDGE_LOOP ( 'NONE', ( #309 ) ) ;
#190 = CONICAL_SURFACE ( 'NONE', #232, 17.50000000000002132, 0.7853981633974344012 ) ;
#191 = FACE_BOUND ( 'NONE', #254, .T. ) ;
#192 = CIRCLE ( 'NONE', #57, 24.50000000000000000 ) ;
#193 = DIRECTION ( 'NONE',  ( -1.000000000000000000, -0.000000000000000000, -0.000000000000000000 ) ) ;
#194 = PRODUCT_DEFINITION ( 'Î´Öª', '', #56, #104 ) ;
#195 = FACE_OUTER_BOUND ( 'NONE', #169, .T. ) ;
#196 = DIRECTION ( 'NONE',  ( 1.000000000000000000, 0.000000000000000000, 0.000000000000000000 ) ) ;
#197 = CYLINDRICAL_SURFACE ( 'NONE', #324, 24.50000000000000000 ) ;
#198 = MANIFOLD_SOLID_BREP ( 'ÇÐ³ý-Ðý×ª2', #433 ) ;
#199 = CYLINDRICAL_SURFACE ( 'NONE', #335, 18.50000000000000000 ) ;
#200 = CARTESIAN_POINT ( 'NONE',  ( 13.84000000000000163, 0.000000000000000000, 0.000000000000000000 ) ) ;
#201 = AXIS2_PLACEMENT_3D ( 'NONE', #243, #374, #41 ) ;
#202 = DIRECTION ( 'NONE',  ( 0.000000000000000000, 0.000000000000000000, -1.000000000000000000 ) ) ;
#203 = ADVANCED_FACE ( 'NONE', ( #63, #364 ), #297, .T. ) ;
#204 = DIRECTION ( 'NONE',  ( -1.000000000000000000, 0.000000000000000000, 0.000000000000000000 ) ) ;
#205 = CALENDAR_DATE ( 2025, 22, 12 ) ;
#206 = CC_DESIGN_PERSON_AND_ORGANIZATION_ASSIGNMENT ( #174, #276, ( #56 ) ) ;
#207 = CARTESIAN_POINT ( 'NONE',  ( 12.33999999999999986, 0.000000000000000000, -24.00000000000001776 ) ) ;
#208 = EDGE_LOOP ( 'NONE', ( #108 ) ) ;
#209 = DATE_TIME_ROLE ( 'creation_date' ) ;
#210 = FACE_OUTER_BOUND ( 'NONE', #275, .T. ) ;
#211 = DATE_AND_TIME ( #205, #165 ) ;
#212 = CARTESIAN_POINT ( 'NONE',  ( 0.000000000000000000, 0.000000000000000000, 0.000000000000000000 ) ) ;
#213 = CIRCLE ( 'NONE', #98, 18.00000000000000000 ) ;
#214 = ORIENTED_EDGE ( 'NONE', *, *, #48, .T. ) ;
#215 = DIRECTION ( 'NONE',  ( 1.000000000000000000, 0.000000000000000000, 0.000000000000000000 ) ) ;
#216 = ORIENTED_EDGE ( 'NONE', *, *, #325, .T. ) ;
#217 = EDGE_CURVE ( 'NONE', #106, #106, #344, .T. ) ;
#218 = CARTESIAN_POINT ( 'NONE',  ( 13.84000000000000163, 0.000000000000000000, -18.50000000000000000 ) ) ;
#219 = EDGE_LOOP ( 'NONE', ( #415 ) ) ;
#220 = CYLINDRICAL_SURFACE ( 'NONE', #410, 22.00000000000000000 ) ;
#221 = CALENDAR_DATE ( 2025, 22, 12 ) ;
#222 = CC_DESIGN_DATE_AND_TIME_ASSIGNMENT ( #102, #273, ( #355 ) ) ;
#223 = FACE_OUTER_BOUND ( 'NONE', #68, .T. ) ;
#224 = TOROIDAL_SURFACE ( 'NONE', #132, 0.5981113243734674789, 192.2203176542800236 ) ;
#225 = CARTESIAN_POINT ( 'NONE',  ( 13.84000000000000163, 0.000000000000000000, 0.000000000000000000 ) ) ;
#226 = DIRECTION ( 'NONE',  ( 1.000000000000000000, 0.000000000000000000, 0.000000000000000000 ) ) ;
#227 = PRODUCT_RELATED_PRODUCT_CATEGORY ( 'detail', '', ( #170 ) ) ;
#228 = DIRECTION ( 'NONE',  ( -1.000000000000000000, -0.000000000000000000, -0.000000000000000000 ) ) ;
#229 = EDGE_CURVE ( 'NONE', #83, #83, #159, .T. ) ;
#230 = DIRECTION ( 'NONE',  ( 0.000000000000000000, 0.000000000000000000, 1.000000000000000000 ) ) ;
#231 = FACE_BOUND ( 'NONE', #245, .T. ) ;
#232 = AXIS2_PLACEMENT_3D ( 'NONE', #99, #39, #396 ) ;
#233 = DIRECTION ( 'NONE',  ( -1.000000000000000000, 0.000000000000000000, 0.000000000000000000 ) ) ;
#234 = DIRECTION ( 'NONE',  ( 0.000000000000000000, 0.000000000000000000, 1.000000000000000000 ) ) ;
#235 = CALENDAR_DATE ( 2025, 22, 12 ) ;
#236 = DIRECTION ( 'NONE',  ( -1.000000000000000000, -0.000000000000000000, -0.000000000000000000 ) ) ;
#237 = ADVANCED_FACE ( 'NONE', ( #269, #366 ), #190, .T. ) ;
#238 = PERSON_AND_ORGANIZATION ( #241, #73 ) ;
#239 = CARTESIAN_POINT ( 'NONE',  ( 13.84000000000000163, 0.000000000000000000, -19.00000000000000000 ) ) ;
#240 = APPLICATION_PROTOCOL_DEFINITION ( 'international standard', 'config_control_design', 1994, #128 ) ;
#241 = PERSON ( 'Î´Ö¸¶¨', 'Î´Ö¸¶¨', 'Î´Ö¸¶¨', ('Î´Ö¸¶¨'), ('Î´Ö¸¶¨'), ('Î´Ö¸¶¨') ) ;
#242 = LOCAL_TIME ( 11, 21, 33.00000000000000000, #372 ) ;
#243 = CARTESIAN_POINT ( 'NONE',  ( 12.33999999999999986, 0.000000000000000000, 0.000000000000000000 ) ) ;
#244 = AXIS2_PLACEMENT_3D ( 'NONE', #160, #290, #426 ) ;
#245 = EDGE_LOOP ( 'NONE', ( #418 ) ) ;
#246 = APPROVAL_ROLE ( '' ) ;
#247 = FACE_OUTER_BOUND ( 'NONE', #186, .T. ) ;
#248 = ORIENTED_EDGE ( 'NONE', *, *, #93, .F. ) ;
#249 = CARTESIAN_POINT ( 'NONE',  ( 21.63999999999999346, 0.000000000000000000, -15.23907971473267331 ) ) ;
#250 = ORIENTED_EDGE ( 'NONE', *, *, #317, .F. ) ;
#251 = EDGE_CURVE ( 'NONE', #350, #350, #267, .T. ) ;
#252 = CARTESIAN_POINT ( 'NONE',  ( 16.83999999999999986, 0.000000000000000000, -18.00000000000000000 ) ) ;
#253 = AXIS2_PLACEMENT_3D ( 'NONE', #212, #215, #78 ) ;
#254 = EDGE_LOOP ( 'NONE', ( #407 ) ) ;
#255 = VERTEX_POINT ( 'NONE', #286 ) ;
#256 = ORIENTED_EDGE ( 'NONE', *, *, #91, .F. ) ;
#257 = DATE_AND_TIME ( #342, #242 ) ;
#258 = CARTESIAN_POINT ( 'NONE',  ( 12.33999999999999986, 0.000000000000000000, 0.000000000000000000 ) ) ;
#259 = DIRECTION ( 'NONE',  ( 0.000000000000000000, 0.000000000000000000, -1.000000000000000000 ) ) ;
#260 = CARTESIAN_POINT ( 'NONE',  ( 5.540000000000000036, 0.000000000000000000, 0.000000000000000000 ) ) ;
#261 = ADVANCED_FACE ( 'NONE', ( #266, #296 ), #416, .T. ) ;
#262 = DIRECTION ( 'NONE',  ( 0.000000000000000000, 0.000000000000000000, -1.000000000000000000 ) ) ;
#263 = EDGE_CURVE ( 'NONE', #188, #188, #359, .T. ) ;
#264 = DIRECTION ( 'NONE',  ( 1.000000000000000000, 0.000000000000000000, 0.000000000000000000 ) ) ;
#265 = DIRECTION ( 'NONE',  ( 0.000000000000000000, 0.000000000000000000, 1.000000000000000000 ) ) ;
#266 = FACE_OUTER_BOUND ( 'NONE', #121, .T. ) ;
#267 = CIRCLE ( 'NONE', #134, 22.00000000000000000 ) ;
#268 = CARTESIAN_POINT ( 'NONE',  ( 0.5000000000000004441, 0.000000000000000000, 0.000000000000000000 ) ) ;
#269 = FACE_OUTER_BOUND ( 'NONE', #378, .T. ) ;
#270 = UNCERTAINTY_MEASURE_WITH_UNIT (LENGTH_MEASURE( 1.000000000000000082E-05 ), #149, 'distance_accuracy_value', 'NONE');
#271 = DIRECTION ( 'NONE',  ( -1.000000000000000000, -0.000000000000000000, -0.000000000000000000 ) ) ;
#272 = ADVANCED_FACE ( 'NONE', ( #103, #64 ), #144, .T. ) ;
#273 = DATE_TIME_ROLE ( 'classification_date' ) ;
#274 = FACE_OUTER_BOUND ( 'NONE', #189, .T. ) ;
#275 = EDGE_LOOP ( 'NONE', ( #16 ) ) ;
#276 = PERSON_AND_ORGANIZATION_ROLE ( 'creator' ) ;
#277 = CARTESIAN_POINT ( 'NONE',  ( 0.5000000000000004441, 0.000000000000000000, -25.00000000000000000 ) ) ;
#278 = CIRCLE ( 'NONE', #330, 15.23907971473267331 ) ;
#279 = ORIENTED_EDGE ( 'NONE', *, *, #184, .F. ) ;
#280 = VERTEX_POINT ( 'NONE', #117 ) ;
#281 = ORIENTED_EDGE ( 'NONE', *, *, #17, .F. ) ;
#282 = AXIS2_PLACEMENT_3D ( 'NONE', #111, #18, #15 ) ;
#283 = CYLINDRICAL_SURFACE ( 'NONE', #371, 25.00000000000000000 ) ;
#284 = AXIS2_PLACEMENT_3D ( 'NONE', #200, #300, #166 ) ;
#285 = EDGE_LOOP ( 'NONE', ( #176 ) ) ;
#286 = CARTESIAN_POINT ( 'NONE',  ( 21.14000000000001123, 0.000000000000000000, -18.00000000000000000 ) ) ;
#287 = ORIENTED_EDGE ( 'NONE', *, *, #325, .F. ) ;
#288 = FACE_OUTER_BOUND ( 'NONE', #112, .T. ) ;
#289 = DIRECTION ( 'NONE',  ( 0.000000000000000000, 0.000000000000000000, -1.000000000000000000 ) ) ;
#290 = DIRECTION ( 'NONE',  ( -1.000000000000000000, -0.000000000000000000, -0.000000000000000000 ) ) ;
#291 = ADVANCED_FACE ( 'NONE', ( #328, #1 ), #31, .T. ) ;
#292 = CARTESIAN_POINT ( 'NONE',  ( 16.33999999999998565, 0.000000000000000000, 0.000000000000000000 ) ) ;
#293 = DIRECTION ( 'NONE',  ( -1.000000000000000000, -0.000000000000000000, -0.000000000000000000 ) ) ;
#294 = CARTESIAN_POINT ( 'NONE',  ( 5.039999999999985825, 0.000000000000000000, 0.000000000000000000 ) ) ;
#295 = CIRCLE ( 'NONE', #14, 22.00000000000000000 ) ;
#296 = FACE_BOUND ( 'NONE', #11, .T. ) ;
#297 = PLANE ( 'NONE',  #369 ) ;
#298 = CIRCLE ( 'NONE', #307, 25.00000000000000000 ) ;
#299 = APPROVAL ( #172, 'Î´Ö¸¶¨' ) ;
#300 = DIRECTION ( 'NONE',  ( 1.000000000000000000, 0.000000000000000000, 0.000000000000000000 ) ) ;
#301 = COORDINATED_UNIVERSAL_TIME_OFFSET ( 8, 0, .AHEAD. ) ;
#302 = CARTESIAN_POINT ( 'NONE',  ( 13.84000000000000163, 0.000000000000000000, 0.000000000000000000 ) ) ;
#303 = ADVANCED_FACE ( 'NONE', ( #401, #97 ), #367, .T. ) ;
#304 = MECHANICAL_CONTEXT ( 'NONE', #412, 'mechanical' ) ;
#305 = DIRECTION ( 'NONE',  ( 0.000000000000000000, 1.000000000000000000, 0.000000000000000000 ) ) ;
#306 = ORIENTED_EDGE ( 'NONE', *, *, #29, .T. ) ;
#307 = AXIS2_PLACEMENT_3D ( 'NONE', #60, #28, #262 ) ;
#308 = VERTEX_POINT ( 'NONE', #249 ) ;
#309 = ORIENTED_EDGE ( 'NONE', *, *, #263, .F. ) ;
#310 = CALENDAR_DATE ( 2025, 22, 12 ) ;
#311 = PLANE ( 'NONE',  #253 ) ;
#312 = CIRCLE ( 'NONE', #244, 24.49999999999999645 ) ;
#313 = ORIENTED_EDGE ( 'NONE', *, *, #217, .T. ) ;
#314 = VERTEX_POINT ( 'NONE', #404 ) ;
#315 = ORIENTED_EDGE ( 'NONE', *, *, #13, .T. ) ;
#316 = VERTEX_POINT ( 'NONE', #20 ) ;
#317 = EDGE_CURVE ( 'NONE', #316, #316, #51, .T. ) ;
#318 = EDGE_LOOP ( 'NONE', ( #151 ) ) ;
#319 = APPROVAL_PERSON_ORGANIZATION ( #110, #299, #339 ) ;
#320 = CARTESIAN_POINT ( 'NONE',  ( 12.33999999999999986, 0.000000000000000000, 0.000000000000000000 ) ) ;
#321 = PERSON_AND_ORGANIZATION_ROLE ( 'design_supplier' ) ;
#322 = FACE_OUTER_BOUND ( 'NONE', #42, .T. ) ;
#323 = DIRECTION ( 'NONE',  ( 0.000000000000000000, 0.000000000000000000, -1.000000000000000000 ) ) ;
#324 = AXIS2_PLACEMENT_3D ( 'NONE', #327, #293, #428 ) ;
#325 = EDGE_CURVE ( 'NONE', #255, #255, #332, .T. ) ;
#326 = DIRECTION ( 'NONE',  ( 1.000000000000000000, 0.000000000000000000, 0.000000000000000000 ) ) ;
#327 = CARTESIAN_POINT ( 'NONE',  ( 12.33999999999999986, 0.000000000000000000, 0.000000000000000000 ) ) ;
#328 = FACE_OUTER_BOUND ( 'NONE', #53, .T. ) ;
#329 = DIRECTION ( 'NONE',  ( -1.000000000000000000, 0.000000000000000000, 0.000000000000000000 ) ) ;
#330 = AXIS2_PLACEMENT_3D ( 'NONE', #353, #94, #26 ) ;
#331 = CARTESIAN_POINT ( 'NONE',  ( 11.84000000000000341, 0.000000000000000000, 0.000000000000000000 ) ) ;
#332 = CIRCLE ( 'NONE', #402, 18.00000000000000000 ) ;
#333 = DIRECTION ( 'NONE',  ( 1.000000000000000000, 0.000000000000000000, 0.000000000000000000 ) ) ;
#334 = EDGE_LOOP ( 'NONE', ( #313 ) ) ;
#335 = AXIS2_PLACEMENT_3D ( 'NONE', #33, #164, #265 ) ;
#336 = SECURITY_CLASSIFICATION_LEVEL ( 'unclassified' ) ;
#337 = ADVANCED_FACE ( 'NONE', ( #133, #362 ), #199, .T. ) ;
#338 = DIRECTION ( 'NONE',  ( 0.000000000000000000, 0.000000000000000000, 1.000000000000000000 ) ) ;
#339 = APPROVAL_ROLE ( '' ) ;
#340 = VERTEX_POINT ( 'NONE', #277 ) ;
#341 = EDGE_LOOP ( 'NONE', ( #343 ) ) ;
#342 = CALENDAR_DATE ( 2025, 22, 12 ) ;
#343 = ORIENTED_EDGE ( 'NONE', *, *, #317, .T. ) ;
#344 = CIRCLE ( 'NONE', #123, 24.50000000000000000 ) ;
#345 = SHAPE_DEFINITION_REPRESENTATION ( #140, #422 ) ;
#346 = CARTESIAN_POINT ( 'NONE',  ( 106.7518540644267802, 0.000000000000000000, 0.000000000000000000 ) ) ;
#347 = ORIENTED_EDGE ( 'NONE', *, *, #184, .T. ) ;
#348 = DIRECTION ( 'NONE',  ( 0.000000000000000000, 0.000000000000000000, 1.000000000000000000 ) ) ;
#349 = EDGE_LOOP ( 'NONE', ( #306 ) ) ;
#350 = VERTEX_POINT ( 'NONE', #52 ) ;
#351 = ORIENTED_EDGE ( 'NONE', *, *, #80, .T. ) ;
#352 = ADVANCED_FACE ( 'NONE', ( #231, #274 ), #414, .F. ) ;
#353 = CARTESIAN_POINT ( 'NONE',  ( 21.63999999999999346, 0.000000000000000000, 0.000000000000000000 ) ) ;
#354 = DATE_AND_TIME ( #235, #431 ) ;
#355 = SECURITY_CLASSIFICATION ( '', '', #336 ) ;
#356 = DIRECTION ( 'NONE',  ( 0.000000000000000000, 0.000000000000000000, -1.000000000000000000 ) ) ;
#357 = DIRECTION ( 'NONE',  ( 1.000000000000000000, 0.000000000000000000, 0.000000000000000000 ) ) ;
#358 = DIRECTION ( 'NONE',  ( 0.000000000000000000, 0.000000000000000000, -1.000000000000000000 ) ) ;
#359 = CIRCLE ( 'NONE', #284, 19.00000000000000000 ) ;
#360 = CC_DESIGN_APPROVAL ( #101, ( #56 ) ) ;
#361 = FACE_OUTER_BOUND ( 'NONE', #384, .T. ) ;
#362 = FACE_OUTER_BOUND ( 'NONE', #9, .T. ) ;
#363 = DIRECTION ( 'NONE',  ( 1.000000000000000000, 0.000000000000000000, 0.000000000000000000 ) ) ;
#364 = FACE_OUTER_BOUND ( 'NONE', #5, .T. ) ;
#365 = CIRCLE ( 'NONE', #167, 19.00000000000000000 ) ;
#366 = FACE_BOUND ( 'NONE', #375, .T. ) ;
#367 = CONICAL_SURFACE ( 'NONE', #36, 18.49999999999999645, 0.7853981633974378429 ) ;
#368 = EDGE_CURVE ( 'NONE', #120, #120, #129, .T. ) ;
#369 = AXIS2_PLACEMENT_3D ( 'NONE', #65, #168, #35 ) ;
#370 = DATE_AND_TIME ( #310, #119 ) ;
#371 = AXIS2_PLACEMENT_3D ( 'NONE', #8, #10, #348 ) ;
#372 = COORDINATED_UNIVERSAL_TIME_OFFSET ( 8, 0, .AHEAD. ) ;
#373 = AXIS2_PLACEMENT_3D ( 'NONE', #225, #357, #323 ) ;
#374 = DIRECTION ( 'NONE',  ( 1.000000000000000000, 0.000000000000000000, 0.000000000000000000 ) ) ;
#375 = EDGE_LOOP ( 'NONE', ( #79 ) ) ;
#376 = COORDINATED_UNIVERSAL_TIME_OFFSET ( 8, 0, .AHEAD. ) ;
#377 = FACE_BOUND ( 'NONE', #318, .T. ) ;
#378 = EDGE_LOOP ( 'NONE', ( #287 ) ) ;
#379 = VERTEX_POINT ( 'NONE', #81 ) ;
#380 = EDGE_LOOP ( 'NONE', ( #216 ) ) ;
#381 = APPROVAL ( #7, 'Î´Ö¸¶¨' ) ;
#382 = AXIS2_PLACEMENT_3D ( 'NONE', #346, #417, #305 ) ;
#383 = CARTESIAN_POINT ( 'NONE',  ( 11.84000000000000341, 0.000000000000000000, -24.50000000000000000 ) ) ;
#384 = EDGE_LOOP ( 'NONE', ( #154 ) ) ;
#385 = ADVANCED_FACE ( 'NONE', ( #175 ), #152, .F. ) ;
#386 = EDGE_LOOP ( 'NONE', ( #50 ) ) ;
#387 = PERSON_AND_ORGANIZATION ( #241, #73 ) ;
#388 = AXIS2_PLACEMENT_3D ( 'NONE', #268, #397, #398 ) ;
#389 = DIRECTION ( 'NONE',  ( -1.000000000000000000, -0.000000000000000000, -0.000000000000000000 ) ) ;
#390 = LOCAL_TIME ( 11, 21, 33.00000000000000000, #301 ) ;
#391 = DIRECTION ( 'NONE',  ( 0.000000000000000000, 0.000000000000000000, 1.000000000000000000 ) ) ;
#392 = AXIS2_PLACEMENT_3D ( 'NONE', #258, #24, #356 ) ;
#393 = DIRECTION ( 'NONE',  ( 0.000000000000000000, 0.000000000000000000, -1.000000000000000000 ) ) ;
#394 = FACE_OUTER_BOUND ( 'NONE', #334, .T. ) ;
#395 = DIRECTION ( 'NONE',  ( 0.000000000000000000, 0.000000000000000000, -1.000000000000000000 ) ) ;
#396 = DIRECTION ( 'NONE',  ( 0.000000000000000000, 0.000000000000000000, 1.000000000000000000 ) ) ;
#397 = DIRECTION ( 'NONE',  ( 1.000000000000000000, -0.000000000000000000, -0.000000000000000000 ) ) ;
#398 = DIRECTION ( 'NONE',  ( 0.000000000000000000, 0.000000000000000000, -1.000000000000000000 ) ) ;
#399 = ADVANCED_FACE ( 'NONE', ( #247, #75 ), #283, .T. ) ;
#400 = PERSON_AND_ORGANIZATION ( #241, #73 ) ;
#401 = FACE_OUTER_BOUND ( 'NONE', #147, .T. ) ;
#402 = AXIS2_PLACEMENT_3D ( 'NONE', #4, #142, #395 ) ;
#403 = CARTESIAN_POINT ( 'NONE',  ( 0.000000000000000000, 0.000000000000000000, 0.000000000000000000 ) ) ;
#404 = CARTESIAN_POINT ( 'NONE',  ( 21.64000000000000057, 0.000000000000000000, -17.50000000000002132 ) ) ;
#405 = COORDINATED_UNIVERSAL_TIME_OFFSET ( 8, 0, .AHEAD. ) ;
#406 = VERTEX_POINT ( 'NONE', #182 ) ;
#407 = ORIENTED_EDGE ( 'NONE', *, *, #13, .F. ) ;
#408 =( GEOMETRIC_REPRESENTATION_CONTEXT ( 3 ) GLOBAL_UNCERTAINTY_ASSIGNED_CONTEXT ( ( #270 ) ) GLOBAL_UNIT_ASSIGNED_CONTEXT ( ( #149, #178, #141 ) ) REPRESENTATION_CONTEXT ( 'NONE', 'WORKASPACE' ) );
#409 = PERSON_AND_ORGANIZATION_ROLE ( 'classification_officer' ) ;
#410 = AXIS2_PLACEMENT_3D ( 'NONE', #161, #389, #88 ) ;
#411 = ORIENTED_EDGE ( 'NONE', *, *, #368, .F. ) ;
#412 = APPLICATION_CONTEXT ( 'configuration controlled 3d designs of mechanical parts and assemblies' ) ;
#413 = APPROVAL_STATUS ( 'not_yet_approved' ) ;
#414 = PLANE ( 'NONE',  #282 ) ;
#415 = ORIENTED_EDGE ( 'NONE', *, *, #91, .T. ) ;
#416 = CONICAL_SURFACE ( 'NONE', #38, 24.49999999999998934, 0.7853981633974447263 ) ;
#417 = DIRECTION ( 'NONE',  ( 0.000000000000000000, -0.000000000000000000, 1.000000000000000000 ) ) ;
#418 = ORIENTED_EDGE ( 'NONE', *, *, #229, .T. ) ;
#419 = ADVANCED_FACE ( 'NONE', ( #210 ), #224, .T. ) ;
#420 = CARTESIAN_POINT ( 'NONE',  ( 12.33999999999999986, 0.000000000000000000, -18.50000000000000000 ) ) ;
#421 = ORIENTED_EDGE ( 'NONE', *, *, #156, .T. ) ;
#422 = ADVANCED_BREP_SHAPE_REPRESENTATION ( '693050', ( #198, #95 ), #408 ) ;
#423 = CARTESIAN_POINT ( 'NONE',  ( 21.64000000000000057, 0.000000000000000000, 0.000000000000000000 ) ) ;
#424 = AXIS2_PLACEMENT_3D ( 'NONE', #302, #333, #202 ) ;
#425 = PLANE ( 'NONE',  #67 ) ;
#426 = DIRECTION ( 'NONE',  ( 0.000000000000000000, 0.000000000000000000, -1.000000000000000000 ) ) ;
#427 = FACE_OUTER_BOUND ( 'NONE', #349, .T. ) ;
#428 = DIRECTION ( 'NONE',  ( 0.000000000000000000, 0.000000000000000000, 1.000000000000000000 ) ) ;
#429 = AXIS2_PLACEMENT_3D ( 'NONE', #100, #363, #138 ) ;
#430 = ADVANCED_FACE ( 'NONE', ( #377, #150 ), #311, .F. ) ;
#431 = LOCAL_TIME ( 11, 21, 33.00000000000000000, #376 ) ;
#432 = DIRECTION ( 'NONE',  ( 0.000000000000000000, 0.000000000000000000, 1.000000000000000000 ) ) ;
#433 = CLOSED_SHELL ( 'NONE', ( #337, #399, #430, #177, #291, #71, #352, #61, #27, #203, #237, #261, #187, #303, #272, #419, #54, #385 ) ) ;
#434 = CARTESIAN_POINT ( 'NONE',  ( 5.540000000000000036, 0.000000000000000000, 0.000000000000000000 ) ) ;
#435 = DIRECTION ( 'NONE',  ( -1.000000000000000000, 0.000000000000000000, 0.000000000000000000 ) ) ;
ENDSEC;
END-ISO-10303-21;
